Oops, an error
Loading. Please wait.

Diluted Tab

version 2
version 2

Whole song

Interactive

2,663 views 1 this week
3 commentsread comments
1 2 3 4 5
1 last vote to show rating
add to favorites
launch autoscroll
font size
0
reset
how to read this tab
guitar tuner
Autoscroll
slow
fast
+/-
esc
set tempo
stop
Help us to improve Ultimate-Guitar.com Take our survey!
×
slipknot
diluted


Symbols used in this tab:

Notes:
w - whole note
h - half note
q - quarter note
e - eighth note
s - sixteenth note

notes without lengths are grace notes

Rests:
W - whole rest
H - Half rest
Q - quarter rest
E - eighth rest
S - sixteenth rest

Articulations:
pm - palm muting
/ - slide up
\ - slide down
~ - vibrato
b - bend
r - release

   intro/main riff:
                         /  intro variation...
C#|----------------------|----------------------|--------|
G#|----------------------|----------------------|--------|
E |.--------------------.|----------------------|--------|
B |.--------------------.|----------------------|--------|
F#|--0-1-0-1-0-1-0-------|--0-1-0-1-0-1-0-------|--------|
B |--0-1-0-1-0-1-0-1b3r--|--0-1-0-1-0-1-0-1/8~--|--(8)~--|
     s e s e s e s   q+e    s e s e s e s e q   +   w

   verse 1:
C#|-----------|-----------|-----------|-----------|-----------|
G#|-----------|-----------|-----------|-----------|-----------|
E |.----------|-----------|-----------|----------.|-----------|
B |.----------|-----------|-----------|----------.|-----------|
F#|-----------|-----------|-----------|-----------|-----------|
B |--1-1-1-1--|--1-1-1-1--|--1-1-1-1--|--1-0-0-0--|--1-1-1-1--|
     q q q q     q q q q     q q q q     q q q q     q q q q
     pm-----]    pm-----]    pm-----]    pm-----]    pm-----]

 -> verse 2 (main riff)

   bridge:
C#|-------------------------------------------|
G#|-------------------------------------------|
E |.------------------------------------------|
B |.------------------------------------------|
F#|--*----------------------------------------|
B |--8-8-8-8-8-8-8-8-8-8-8-8-8-8-8b8.5-8b8.5--|
     s s s s s s s s s s s s s s   s     s
     *gradual bend across 2 bars

C#|---------------------------------------------------------------------------------|
G#|---------------------------------------------------------------------------------|
E |--------------------------------------------------------------------------------.|
B |--------------------------------------------------------------------------------.|
F#|---------------------------------------------------------------------------------|
B |-8b9-8b9-8b9-8b9-8b9-8b9-8b9.5-8b9.5-8b10-8b10-8b10.5-8b10.5-8b11-8b11-8b11-8b11-|
      s   s   s   s   s   s   s     s     s    s    s      s      s    s    s    s

   chorus:         / end of 1st and 2nd chorus...
C#|----------------|----------|
G#|----------------|----------|
E |.--------------.|----------|
B |.--------------.|----------|
F#|--2---1-2-1-2---|--2-------|
B |--2---1-2-1-2---|--2-------|
     q+e q e s e+s    e H+Q+E

 -> verse 3 (main riff)

 -> bridge

 -> chorus

   interlude 1:
C#|-------------------------|------------------------|
G#|-------------------------|------------------------|
E |.-----------------------.|------------------------|
B |.-----------------------.|------------------------|
F#|--2-2-2-1-2-2-2-2-1-1-1--|--x-x-x-x-x-x-x-x-x-3-1-|
B |--2-2-2-1-2-2-2-2-1-1-1--|--x-x-x-x-x-x-x-x-x-3-1-|
     s e s e s e s e s s e     s e e s s e s s s e e

   interlude 2:
C#|---------------|
G#|---------------|
E |.-------------.|
B |.-------------.|
F#|--2-1-2-2-1-1--|
B |--2-1-2-2-1-1--|
     q e q e e e

 -> bridge

 -> chorus

   end:
                                       1.          2.
C#|-----------|-----------|-----------|-----------|--------------------|
G#|-----------|-----------|-----------|-----------|--------------------|
E |.----------|-----------|-----------|----------.|--------------------|
B |.----------|-----------|-----------|----------.|--------------------|
F#|-----------|-----------|-----------|-----------|--------------------|
B |--1-1-1-1--|--1-1-1-1--|--1-1-1-1--|--1-0-0-0--|--1---0---0---------|
     q q q q     q q q q     q q q q     q q q q     e+s e+s e+s Q+E+S
     pm-----]    pm-----]    pm-----]    pm-----]    pm-------]
Suggest correction
Give kudos to tab author, rate the tab!
1 2 3 4 5
comments
print report bad tab
3 comments total.
0 reply
Jotask8bdr 82 Nov 26, 2005 08:44 AM

FU-CKING AWESOME! This is the way I play it, except for the xx, that's kinda weird.
Anyway a GREAT JOB!

0 reply
guitar is yummy 141 Nov 26, 2006 11:58 AM

too many symbols... i mean... al the fancy rests at the bottom of all the lines?!?!?!

0 reply
thezohan 374 Apr 11, 2009 10:28 AM

There's one part missing. There are like harmonics in the middle of the song.

guest
You may want to rate the tab now too:
select rating
Wanna post a correction for this tab? Suggest correction