Oops, an error
Loading. Please wait.

Diluted Tab

version 3
version 3

Whole song

Interactive

659 views 6 this week
2 commentsread comments
1 2 3 4 5
please rate
add to favorites
launch autoscroll
font size
0
reset
how to read this tab
guitar tuner
Autoscroll
slow
fast
+/-
esc
set tempo
stop
Help us to improve Ultimate-Guitar.com Take our survey!
×
Author
-------------------------------------------------------------------------------
                             Diluted - Slipknot
-------------------------------------------------------------------------------
Tabbed by:thezohan
Email:

Tuning:Drop B (B,F#,B,E,G#,C#)

Intro                                          Last time do this
C#|-------------------------------------|--------------------------------------|
G#|-------------------------------------|--------------------------------------|
E |-------------------------------------|--------------------------------------|
B |-------------------------------------|--------------------------------------|
F#|-0h1-0h1-0h1-------0h1-0h1-0h1-------|----0h1-0h1-0h1-----------------------|
B |-0h1-0h1-0h1-1b3~--0h1-0h1-0h1-1b3~--|----0h1-0h1-0h1-/8~~~~~---------------|

Verse Pt. 1      ** X1 **
C#|---------------------------------------------------------------------------|
G#|---------------------------------------------------------------------------|
E |---------------------------------------------------------------------------|
B |---------------------------------------------------------------------------|
F#|---------------------------------------------------------------------------|
B |-1-1-1-1-1-1-1-1-1-1-1-1-1-0-0-0-1-1-1-1-1-1-1-1-1-1-1-1-1-0-0-0-1-1-1-1---|
    X X X X X X X X X X X X X X X X X X X X X X X X X X X X X X X X X X X X

Verse 1 Pt. 2   AND Verse 2
C#|---------------------------------------------------------------------------|
G#|---------------------------------------------------------------------------|
E |---------------------------------------------------------------------------|
B |---------------------------------------------------------------------------|
F#|-0h1-0h1-0h1-------0h1-0h1-0h1-------0h1-0h1-0h1-------0h1-0h1-0h1---------|
B |-0h1-0h1-0h1-1b3~--0h1-0h1-0h1-1b3~--0h1-0h1-0h1-1b3~--0h1-0h1-0h1-1b3~----|

Pre-Chorus
C#|---------------------------------------------------------------------------|
G#|---------------------------------------------------------------------------|
E |---------------------------------------------------------------------------|
B |---------------------------------------------------------------------------|
F#|---------------------------------------------------------------------------|
B |-8-8-8-8-8b9-8b9-8b9-8b9-8b10-8b10-8b10-8b10-8b11-8b11-8b11-8b11-----------|

Pre-Chorus DJ(I think the DJ does this, but it still sounds cool)#tremolo pick
C#|-15####------17##----15####----17##-------|
G#|------------------------------------------|
E |------------------------------------------|
B |------------------------------------------|
F#|------------------------------------------|
B |------------------------------------------|

Chorus
C#|----------------------------------------------|
G#|----------------------------------------------|
E |----------------------------------------------|
B |----------------------------------------------|
F#|-2--1--2-2--2--1--2-2--2--1--2-2--2--1--2-2---|
B |-2--1--2-2--2--1--2-2--2--1--2-2--2--1--2-2---|

Interlude 1
C#|-------------------------------|
G#|-------------------------------|
E |-------------------------------|
B |-------------------------------|
F#|-2--1--2-1-1--2--1--2-1-1------|
B |-2--1--2-1-1--2--1--2-1-1------|

Bridge solo    *natural harmonic
C#|----------------------------------------|
G#|----------------------------------------|
E |-5*-5*---5*----5*-5*-5*---5*-5*-5*------|
B |-5*-5*---5*----5*-5*-5*---5*-5*-5*------|
F#|----------------------------------------|
B |----------------------------------------|

| /  slide up
| \  slide down
| h  hammer-on
| p  pull-off
| ~  vibrato
| +  harmonic
| x  Mute note
===============================================================================
Suggest correction
Give kudos to tab author, rate the tab!
1 2 3 4 5
comments
print report bad tab
2 comments total.
0 reply
rongold360 150 wrote on June 16 2009, 11:58 am

Sweet!
-rongold360 (Ronnie)

0 reply
thezohan 374 wrote on June 16 2009, 04:54 pm

thanks, it was easy to tab

guest
You may want to rate the tab now too:
select rating
Please do not post tabs as comments. Select "correction" instead!