Oops, an error
Loading. Please wait.

Disasterpiece Tab

version 2
version 2

Whole song

Interactive

10,184 views 18 this week
25 commentsread comments
1 2 3 4 5
accurate
x 13
add to favorites
launch autoscroll
font size
0
reset
how to read this tab
guitar tuner
Tab Pro tools
  • play this tab
  • loop segment
  • change instrument
  • show fretboard
  • metronome
×
Best way to learn
"Disasterpiece"
Autoscroll
slow
fast
+/-
esc
set tempo
stop
Contributor
Song:Disasterpiece                                          
Artist:Slipknot
written:Fernando Delgado/Josue Toledo/Eduardo Galan bajo bobo
------------------------------------------------------------
Peos verdes al ataque Moroco poroco zarpitas coretas
(tuning:B F# B E G# C# )
Saludos para Irvin/Saul el peludo/Michael cabezon
 Hola Ricki mi primo el gordo****************************
    send me any shit no bad comments: elrockero56@aol.com
------------------------------------------------------------
(intro:Mick)An effect is used here(though there might be a harmonic
in there on the 5th fret(low b string)
C#|-------------------------|
G#|-------------------------|
E |------------8------------|
B |-------------------------|
F#|---------6---------------|              no puedo hacer el
B |--0-0-0--------0-0-0-----|                songo

(intro:Jim                                       `notes might be wrong
C#|----------------------------|----------------------|-----
G#|----------------------------|----------------------|-----
E |----------------------------|----------------15b---|-----
B |-7/15--0-0--0--10b--0-0--0--|-0-0--0---0-0---------|-----
F#|-7/15--0-0--0-------0-0--0--|-0-0--0---0-0---13b---|-----
B |-7/15--0-0--0-------0-0--0--|-0-0--0---0-0---------|-1p0--2p0-2-3---|
          - -          - -       - -      - -  (-=p.m)
  (0:36)
C#|---------------------------------------------------------
G#|---------------------------------------------------------
E |---------------------------------------------------------
B |---------------------------------------------------------
F#|-0-0--0---0-0--1---0-0-1p0-2p0-3-4-----------------------
B |-0-0--0---0-0--1---0-0-1p0-2p0-3-4-----------------------
    - -      - -      - -

   (Mick)
C#|-------------------|
G#|-------------------|
E |-------------------|   peo
B |-------------------|
F#|-------------------|
B |-0-0-0--1-1-1-0----|

   (Jim)
C#|------------------------------------------------|
G#|------------------------------------------------|
E |------------------------------------------------|
B |------------------------------------------------|
F#|-----------------1p0-2p0-3-4--0-0-0--1-1-1-0----|
B |-0-0-0--1-1-1-0--1p0-2p0-3-4--0-0-0--1-1-1-0----|

   (verse)(both)
C#|-----------------------------------|
G#|-----------------------------------|
E |-----------------------------------|
B |-----------------------------------|
F#|-----------------------------------|
B |-0-0-0--1-1-1--0-0-0--1p0-2p0-3-4--|

  Chorus (+ means to pick more than one time)
C#|---------------------------------------------------------
G#|-"no-one-is..."------------------------------------------
E |-----------------7--8----------7--8----------------------
B |-0-0-0-1-1-1-0---------6-7-6----------0-0-0-1-1-1-0------
F#|-0-0-0-1-1-1-0---5--6----------5--6---0-0-0-1-1-1-0------
B |-0-0-0-1-1-1-0---------6-7-6----------0-0-0-1-1-1-0------
    - - - - - -     +  +  + + +   +  +   - - - - - -

  (Mick)(1:36) (It sounds like he might be using an effect)
C#|-----------------------------------|
G#|-----------------------------------|
E |-----------------------------------|
B |-----------------------------------|
F#|-0-0-0--1-1-1--0-0-0--1p0-2p0-3-4--|
B |-0-0-0--1-1-1--0-0-0--1p0-2p0-3-4--|

   (Jim)(an effect is used here)(possibly a phaser)
C#|---------------------------------------------------------
G#|-5--5-5-5-5--5-5-5---------------------------------------
E |---------------------------------------------------------
B |---------------------------------------------------------
F#|---------------------------------------------------------
B |---------------------------------------------------------

   (verse2)(everything thats in it, has already been played)
C#|-----------------------------------|
G#|-----------------------------------|
E |-----------------------------------|
B |-0-0-0--1-1-1--0-0-0--1p0-2p0-3-4--|
F#|-0-0-0--1-1-1--0-0-0--1p0-2p0-3-4--|
B |-0-0-0--1-1-1--0-0-0--1p0-2p0-3-4--|

(Breakdown)
  (Mick)  *not sure about that
C#|-----|--------|
G#|-----|--------|
E |-----|-4b-----|
B |-0---|-3b--0--|
F#|-0---|-2b--0--|
B |-0---|-----0--|
   
   (Jim)(2:44)
    h
C#|----------------------|
G#|----------------------|
E |----------------------|
B |-3b--0--3-4/1--1\6-7--|
F#|-----0--3-4/1--1\6-7--|
B |-----0--3-4/1--1\6-7--|
        -  - - -
    h                                                          h
C#|----------------------|-------------------|--------------
G#|----------------------|-------------------|--------------
E |----------------------|-------------------|--------------
B |-3b--0--3-4/1--1\6-7--|--0-3-4/1--1\6-7/3-|-0-3-4/1--1\6-7--3b--|
F#|-----0--3-4/1--1\6-7--|--0-3-4/1--1\6-7/3-|-0-3-4/1--1\6-7------|
B |-----0--3-4/1--1\6-7--|--0-3-4/1--1\6-7/3-|-0-3-4/1--1\6-7------|
                    + +                  + +   - - - -    + +   
  (3:38)(Jim)
C#|---------------------------------------------------------
G#|-5--5-5-5-5--5-5-5---------------------------------------
E |---------------------------------------------------------
B |---------------------------------------------------------
F#|---------------------------------------------------------
B |---------------------------------------------------------

  (3:46)(Mick)
C#|-----------------|-------------------|-------------------
G#|-----------------|-------------------|-------------------
E |-----------------|-------------------|-------------------
B |-----------------|-------------------|-------------------
F#|-----------------|-5-5-5--3-3-3-5-5--|------------------
B |-0-0-0--3-3-3-2--|-5-5-5--3-3-3-5-5--|--0-0-0--3-3-3-2-2-2--5-5-5--3-3-3-5-5--|
    - - -  - - - -    - - -  - - - - -


Peos peos peos si no te gusta fumate un peo+++++++++++++++
comments
print report bad tab
25 comments total. Showing first comments.
0 reply
tza wrote on March 8 2002, 12:00 am

this is complete garbage.....you did you even bother sending it in ?

0 reply
Elrockero56 wrote on March 8 2002, 12:00 am

TZA your version is the Garbage this is great.

0 reply
VaYnE wrote on March 8 2002, 12:00 am

This is better the shit u came up with tza!!!

I want to post or [tab]
guest
You may want to rate the tab now too:
select rating
Please do not post tabs as comments. Select "correction" instead!