Oops, an error
Loading. Please wait.

Do Nothing Bass Tab

version 2
version 2

Whole song

Interactive

821 views 1 this week
1 commentread comment
1 2 3 4 5
2 more votes to show rating
add to favorites
launch autoscroll
font size
0
reset
guitar tuner
Autoscroll
slow
fast
+/-
esc
set tempo
stop
Help us to improve Ultimate-Guitar.com Take our survey!
×
Author
Difficulty
Tuning
intermediate
C G C F A D
----------------------------------------------------------------------------
			Do Nothing/Bitchslap - Slipknot
----------------------------------------------------------------------------

tabbed by: dridge81
email: dridge81@hotmail.com

I looked all over the net for a tab to this song, mainly because I'm lazy and didn't
figure it out for myself. Every tab site I searched had the same exact wrong tab on it with
different person claiming credit for it (bassmasta has it about eight times all with 
authors.)

Well, here's my version. I didn't tab out the timing, just the notes in order. Listen to
song and figure it out. Every single note may not be there but I think that all the
locations are correct, just play around with it.

If you wanna steal this from this site and post it somewhere else, at least give me
for it!

::tuning:: cgcf


riff 1:intro and verses
f|----------------------------------------------------------|
c|----------------------------------------------------------|
g|----------------------------------------------------------|
c|-00003-00003-004--00003-00003-004-------------------------|


riff 2:
f|----------------------------------------------------------|
c|---7-6---6-5-----2---3---4---5----------------------------|
g|/5-----4-----3\-------------------------------------------|
c|----------------2---2---2---2-----------------------------|


f|----------------------7-----------------------------------|
c|---7-6-------6-------------9-8----------------------------|
g|/5-----4\-------5/6/7---7---------------------------------|
c|-----------4----------------------------------------------|

f|--------/9------------------------------------------------|
c|-7-6-5-4---5-6-7\-----------------------------------------|
g|------------------------1-2/3-5---------------------------|
c|------------------0-5-6-----------------------------------|

riff 3:
f|----------------------------------------------------------|
c|----------------------------------------------------------|
g|----------------------------------------------------------|
c|-8\7--9\8--10\9--9\8--------------------------------------|


fill 1:
(guitar plays alone then come in with drums)
f|-----7-7-----5-5------------------------------------------|
c|-----------------5h7--------------------------------------|
g|-5h7-----5h7---------5h7----------------------------------|
c|----------------------------------------------------------|


riff 4: funky bridge
f|-----55-----55--------------55-----4--5-------------------|
c|---------------5h7----------------------------------------|
g|-5h7----5h7--------5h7--5h7----5--2--3--------------------|
c|----------------------------------------------------------|

f|-----55-----55--------------55-----10-9-------------------|
c|---------------5h7----------------------------------------|
g|-5h7----5h7--------5h7--5h7----5--8--7--------------------|
c|----------------------------------------------------------|

riff 5:
f|--7---10--9---8---7---4---5---6---------------------------|
c|----------------------------------------------------------|
g|-5---8---7---6---5---2---3---4----------------------------|
c|----------------------------------------------------------|

riff 6:
f|----------------------------------------------------------|
c|----------------------------------------------------------|
g|----------------------------------------------------------|
c|-7---10-10\--0-3-3-0-3-0-03-0303--------------------------|

fill 2:
f|-----55------55------5------------------------------------|
c|----------------------------------------------------------|
g|-5h7----5h7-----5h7---------------------------------------|
c|----------------------------------------------------------|

f|------88---------10--------12-----------------------------|
c|----------------------------------------------------------|
g|-8h10----8--8h10-----10h12--------------------------------|
c|----------------------------------------------------------|

bass solo
f|-----55-----55-------------55-----7-5---------------------|
c|-5h7----5h7----5h7-----5h7----5h7-------------------------|
g|-------------------5h7------------------------------------|
c|----------------------------------------------------------|


f|-----55-----5h7------------------55-----------------------|
c|-5h7----5h7-----5h7-----5h7--5h7--------------------------|
g|--------------------5h7-----------------------------------|
c|------------------------------------0-x-------------------|

outro
f|----------------------------------------------------------|
c|----------------------------------------------------------|
g|----------------------------------------------------------|
c|-8/7--9/8--10/9--9/8--------------------------------------|

f|----------------------------------------------------------|
c|----------------------------------------------------------|
g|-8/7--9/8--10/9--9/8--------------------------------------|
c|----------------------------------------------------------|

| /  slide up
| \  slide down
| h  hammer-on
| p  pull-off
| ~  vibrato
| +  harmonic
| x  Mute note
============================================================================
Suggest correction
Give kudos to tab author, rate the tab!
1 2 3 4 5
comments
print report bad tab
1 comment total.
0 reply
20loves 10 Sep 26, 2010 01:38 PM

wrong tunning, terrible

guest
You may want to rate the tab now too:
select rating
Wanna post a correction for this tab? Suggest correction