Oops, an error
Loading. Please wait.

Dont Get Close Tab

version 1
version 1

Solo

Whole song

Interactive

529 views 1 this week
no commentswrite comment
1 2 3 4 5
please rate
add to favorites
launch autoscroll
font size
0
reset
how to read this tab
guitar tuner
Tab Pro tools
  • play this tab
  • loop segment
  • change instrument
  • show fretboard
  • metronome
×
Best way to learn
"Dont Get Close"
Autoscroll
slow
fast
+/-
esc
set tempo
stop
Contributor
Tuning
B F# B E G# C#
<<< Don't Get Close [*] >>>

by 'Slipknot' from 'Vol. 3: The Subliminal Versus'

Tabbed by Liam Jemmeson [p.l.u.c.k.01@hotmail.com]

Symbols:

>  ~ = Let Ring
>  / = Slide Up
>  \ = Slide Down
>  : = Mute note   
>  h = Hammer-on
>  p = Pull off  
>  b = Bend
>  r = Release bend/whammy
>(#) = Bend [b(#)] or wammy [w(#)] to sound like bracketed note
> w/ = Whammy up
> w\ = Whammy down
>{*} = Feedback
>  ' = Tremelo Pick 

Guitar 1 = Mick Thomson (Right Sterio)
Guitar 2 = Jim Root (Left Sterio)


/     |Solo Pt I - Guitar 1 
|  C# |-------------------------------------------------|
|  G# |-------------------------------------------------|
|  E  |----13~--------18~-------13~---------------------|
|  B  |---------15~--------20~--------15~---11~---------|
|  F# |-------------------------------------------13~---|
|  B  |-------------------------------------------------|
|
x2
|     |Solo Pt I - Guitar 2 
|  C# |-------------------------------------------------|
|  G# |-------------------------------------------------|
|  E  |-------------------------------------------------|
|  B  |-------------------------------------------------|
|  F# |----11~--8~----13~--10~---8~---5~----4~---1~-----|
\  B  |-------------------------------------------------|


   |Solo Pt II + III - Guitar 2 x2
C# |----------------------------------------------------|
G# |----------------------------------------------------|
E  |----------------------------------------------------|
B  |----------------------------------------------------|
F# |----------------------------------------------------|
B  |----6~---3~----9~---5~----6~---3~----5~---0~--------|


   |Solo Pt II - Guitar 1
C# |----------------------------------------------------|
G# |----------------------------------------------------|
E  |-11h12-12-12-12-12-12-12-12-12-12-12-12-12-12-12----|
B  |----------------------------------------------------|
F# |----------------------------------------------------|
B  |----------------------------------------------------|
 
C# |----------------------------------------------------|
G# |----------------------------------------------------|
E  |--13\5/15\5/16-------------------15-14--------------|
B  |---------------15-------------14-------13-----------|
F# |------------------14-------14-------------13--------|
B  |---------------------16-15-------------------12-----|
      ''''''''''


   |Solo Pt III - Guitar 1
C# |--15-15-15-15-15-15-------------------15-15-15-15---|
G# |----------------------------------------------------|
E  |--------------------12-12-12-12-12-12---------------|
B  |----------------------------------------------------|
F# |----------------------------------------------------|
B  |----------------------------------------------------|

C# |--16\7/19\7/19-------------------18-17--------------|
G# |---------------18-------------17-------16-----------|
E  |------------------17-------16-------------15--------|
B  |---------------------16-15-------------------14-15~-|
F# |----------------------------------------------------|
B  |----------------------------------------------------|
      ''''''''''  

Repeat Solo Pt I for both guitars then play:

   |Solo Ending - Both Guitars
C# |--------------------------|
G# |--------------------------|
E  |--------------------------|
B  |--------------------------|
F# |--------------------------|
B  |----10~---7~---10b(13)----|

Please rate or leave a comment!
comments
We did not receive enough feedback on this tab! Please rate:
print report bad tab
1 2 3 4 5
I want to post or [tab]
guest
You may want to rate the tab now too:
select rating
Please do not post tabs as comments. Select "correction" instead!