Oops, an error
Loading. Please wait.

Dont Get Close Bass Tab

version 2
version 2

Whole song

Interactive

204 views 3 this week
no commentswrite comment
1 2 3 4 5
please rate
add to favorites
launch autoscroll
font size
0
reset
guitar tuner
Tab Pro tools
  • play this tab
  • loop segment
  • change instrument
  • show fretboard
  • metronome
×
Best way to learn
"Dont Get Close"
Autoscroll
slow
fast
+/-
esc
set tempo
stop
Contributor
SLIPKNOT
DON’T GET CLOSE
VOL. 3:(THE SUBLIMINAL VERSES)
Tuning: E,A,D,G
Tabbed by: cdsteroid23
E-mail: cd_seven8710@hotmail.com

---------------------------------------------------------------------- 
  
After an INTRO from 
drummer the band begins:
                        (00:33)       
G|----------------------------|
D|----------------------------|
A|-----------------------5-6--|(x4)
E|--6-5-00-3-0-00-2-3-00------|

VERSE:           (00:50)                          (00:56)
G|---------------------|    |---------------------------|
D|---------------------|    |---------------------------|
A|---------------------|(x4)|---------------------------|(x2)
E|--2-2--2-2—-2/5--0-0-|    |--2-2--2-2—2/5-6--0-0--0-0-|

PRE-CHORUS:                                                (01:03)
G|---------------------------------------------------------------|
D|---------------------------------------------------------------|
A|----------------------------3-3-4------------5-5-6-------------|(x2)
E|--2--5--3--2--2-2--5--3--2--------0--0-0--0-0------0--0-0-0-0--|

Repeat The VERSE(x2) and the PRE-CHORUS(x2)and continue:

CHORUS:                          (01:47)
G|-------------------------------------|
D|-------------------------------------|
A|-------------------------------------|(x8)
E|--6-5-0-0-0000000-6--3-5-0-0-0000000-|

INTERLUDE:                               (02:14)                    (02:54)
G|---------------------------------------------|    |---------------------|
D|---------------------------------------------|    |---------------------|
A|---------------------------------------------|(x6)|---------------------|
E|--7/4~~~-----10/6~~~-----7/4~~~-----5/2~~~---|    |--3/0~~~---5/2~~~----|
       (It’s “10” not “1” and “0”)             
                                    
FINAL CHORUS                     (02:58)
G|-------------------------------------|
D|-------------------------------------|
A|-------------------------------------|(x7)
E|--6-5-0-0-0000000-6--3-5-0-0-0000000-|

                        (03:24)
G|----------------------------|
D|----------------------------|
A|-----------------------5-6--|(x3)
E|--6-5-00-3-0-00-2-3-00------|
comments
We did not receive enough feedback on this tab! Please rate:
print report bad tab
1 2 3 4 5
I want to post or [tab]
guest
You may want to rate the tab now too:
select rating
Please do not post tabs as comments. Select "correction" instead!