Oops, an error
Loading. Please wait.

Dont Get Close Tab

version 2
version 2

Whole song

Interactive

1,912 views 3 this week
6 commentsread comments
1 2 3 4 5
accurate
x 3
add to favorites
launch autoscroll
font size
0
reset
how to read this tab
guitar tuner
Tab Pro tools
  • play this tab
  • loop segment
  • change instrument
  • show fretboard
  • metronome
×
Best way to learn
"Dont Get Close"
Autoscroll
slow
fast
+/-
esc
set tempo
stop
Contributor
Difficulty
intermediate
All the riffs and some of the solo

PM = ·
Slide = /
Tremolo Pick = t
* = Harmonics
~ = Wide vibrato

Come on!
(Intro)
-----------------------------------------------------|
-----------------------------------------------------|
-----------------------------------------------------|
-----------------------------------------------------|
-----------------------------------------------------|
------------0-0-0---5---6---0-0-0----10--9--10/12----|
            · · ·           · · ·

Riff intro, prefirstverse
-----------------------------------------------------|
-----------------------------------------------------|
-----------------------------------------------------|
-----------------------------------------------------|
-----------------------------------------------------|
3-2-3-2--1-0----1-2-3---5---6---0-0-0----10--9--10/12| x 4
                                · · ·
Verses
-----------------------------------------------------|
-----------------------------------------------------|
-----------------------------------------------------|
-----------------------------------------------------|
-----------------------------------------------------|
-2-2-2-2----0-0-0-0----2-2-3-3/5~--0----0-0-0-0------| x 4

Second part verses
-----------------------------------------------------|
-----------------------------------------------------|
-----------------------------------------------------|
-----------------------------------------------------|
-----------------------------------------------------|
-2-2-2-2---0-0-0-0---2-2-3-5--6\0-----0-0---0-0-0-0--| x 2

Chorus
-----------------------------------------------------|
-----------------------------------------------------|
-----------------------------------------------------|
-----------------------------------------------------|
-----------------------------------------------------|
7t--10t--8t--7t------7t--10t--8t--7t---10t/12t-------| 

-----------------------------------------------------|
-----------------------------------------------------|
-----------------------------------------------------|
5------3--2-------------8----------1-----------------| x 2
5------3--2-------------8---(*9~)--1-----------------|
5------3--2-------------8----------1-----------------| Mick does that harmonic, instead
                                                       the last power chord
Second part verses
-----------------------------------------------------|
-----------------------------------------------------|
-----------------------------------------------------|
-----------------------------------------------------|
-----------------------------------------------------|
-2-2-2-2---0-0-0-0---2-2-3-5--6\0-----0-0---0-0-0-0--| x 4

Chorus x 2; then modified riff for the 
next chorus and this bridge before the solo.

Second part verses
-----------------------------------------------------|
-----------------------------------------------------|
-----------------------------------------------------|
-----------------------------------------------------|
-----------------------------------------------------|
3---2----1p0----6-5-----8--0---5h6----6-5------------|
6   5?          · ·                     · ·


Solo (isn't accurate, just the scales, and where to start)
-----------------------------------------------------|
-----------------------------------------------------|
13----------16---------------------------------------|
-----15~-----------17~-------------------------------|
-----------------------------------------------------|
-----------------------------------------------------|

Jim's part
----------------------------------------------------->
----------------------------------------------------->
-12t--13t-12t-10t------------------------12t-13t-15t->
------------------13t-12t-10t-10t-12t-13t------------>
----------------------------------------------------->
----------------------------------------------------->

>----------------------------------------------------->
>--------------------------------------------12~------>
>-13t-12t---------------------12t-13t-15t---------13-->
>---------15t-13t-12t-13t-15t------------------------->
>----------------------------------------------------->
>----------------------------------------------------->

>-----------------------------------------------------|
>-----------------------------------------------------|
>-10------9-------8-----------------------------------|
>-------------------------8---Missed notes here-------|
>-----------------------------------------------------|
>-----------------------------------------------------|

Mick's Part, in the first tremolo Mick misses a note.

>---13t--14t-13t-11t-------------------------13t-14t-->
>--------------------14t-13t-11t-11t-13t-14t---------->
>----------------------------------------------------->
>----------------------------------------------------->
>----------------------------------------------------->
>----------------------------------------------------->

>-16t-14t-13t---------------------13t-14t-16t--------->
>--------------16t-14t-13t-14t-16t-------------------->
>----------------------------------------------------->
>----------------------------------------------------->
>----------------------------------------------------->
>----------------------------------------------------->


Then again
-----------------------------------------------------|
-----------------------------------------------------|
-----------------------------------------------------|
-----------------------------------------------------|
-----------------------------------------------------|
3---2----1p0----6-5-----8---0----5h6----6-5----------|
6   5?          · ·                     · ·

Then
-----------------------------------------------------|
-----------------------------------------------------|
-----------------------------------------------------|
-----------------------------------------------------|
-----------------------------------------------------|
3-2-3-2--1-0----1-2-3---5---6---0-0-0----10--9--10/12|
          >^<                   · · ·
The song ends with that note
comments
We did not receive enough feedback on this tab! Please rate:
print report bad tab
1 2 3 4 5
6 comments total. Showing first comments.
0 reply
Jotask8bdr wrote on November 30 2005, 06:37 am

in the, second part verses the 6-5 notes are with Palm Mute and tremolo pick, and i just put the palm mutes. sorry

0 reply
Murk wrote on February 19 2006, 02:41 pm

boobies!!!!

0 reply
Jotask8bdr wrote on June 17 2006, 01:10 pm

YEAH BOOBIES

I want to post or [tab]
guest
You may want to rate the tab now too:
select rating
Please do not post tabs as comments. Select "correction" instead!