Oops, an error
Loading. Please wait.

Duality Bass Tab

version 1
115,298 views 165 this week
25 commentsread comments
1 2 3 4 5
x 32
add to favorites
launch autoscroll
font size
0
reset
guitar tuner
Autoscroll
slow
fast
+/-
esc
set tempo
stop
Help us to improve Ultimate-Guitar.com Take our survey!
×
Author
Difficulty
Tuning
intermediate
B F# B E G# C#
Original Contributor: modus operendi
New Contributor: Teh D Bot
Original Tab at bottom


Intro 0:16
E |-----------------------------------------------------------------|
B |-----------------------------------------------------------------|
F#|-----------------------------------------------------------------|
B |-0-0-0-0-0-0-0-0-0-0-0-0-0-0-0-3-3-3-3-3-3-3-3-6---1-1-1-1-3-1-0-|
    1 + 2 + 3 + 4 + 1 + 2 + 3 + 4 + 1 + 2 + 3 + 4 + 1 + 2 + 3 + 4 + 

E |-----------------------------------------------------------------|
B |-----------------------------------------------------------------|
F#|---------------------------------------------------6-6-6-6-6-6-\-|
B |-0-0-0-0-0-0-0-0-0-0-0-0-0-0-0-3-3-3-3-3-3-3-3-6-----------------|
    1 + 2 + 3 + 4 + 1 + 2 + 3 + 4 + 1 + 2 + 3 + 4 + 1 + 2 + 3 + 4 + 

E |--------------------------------------------------|
B |o-------------------------------------------------|
F#|o---------------------------------------------3b--|
B |----0--0--0-----0-0-----0--0--0-----0-1-0-3-------|
     1 + 2 + 3 + 4 + 1 + 2 + 3 + 4 + 1 + 2 + 3 + 4 + 

E |--------------------------------------------------|
B |-------------------------------------------------o|
F#|-------------------------------------------------o|
B |---0--0--0-----0-0-----0--0--0-----0-1-0-6-\-1----|
    1 + 2 + 3 + 4 + 1 + 2 + 3 + 4 + 1 + 2 + 3 + 4 + 

Rest

Verse
E |-----------------------------------------------------------------------------|
B |o---------------------------------------------------------------------------o|
F#|o---------------------------------------------------------------------------o|x8
B |--12-12-12-12-7-7-10-10-10-10-10-10-5-5-7-7-3-3-3-3-5-5-1-1-0-0-0-0-0-0-0-0--|

Pre Chorus
E |-----------------------------------------------------------------|
B |-----------------------------------------------------------------|
F#|-----------------------------------------------------------------|
B |-3---3---3-3---3-3---3---3-3---3-3---3---3-3---3-2---2---1---1---|
    1 + 2 + 3 + 4 + 1 + 2 + 3 + 4 + 1 + 2 + 3 + 4 + 1 + 2 + 3 + 4 + 

Chorus
E |-----------------------------------------------------------------|
B |-----------------------------------------------------------------|
F#|-----5-3-5-------5-3-5---5-3-------------------------------------|
B |-0-0-------0-0-0-------0-----6-3---3-3-3-3-3-3-6---1-1-1-1-3-1-0-|
    1 + 2 + 3 + 4 + 1 + 2 + 3 + 4 + 1 + 2 + 3 + 4 + 1 + 2 + 3 + 4 + 

E |-----------------------------------------------------------------|
B |-----------------------------------------------------------------|
F#|-----5-3-5-------5-3-5---5-3-------------------------------------|
B |---0-------0-0-0-------0-----6-3---3-3-3-3-3-3-6---1-1-1-1-3-1-0-|
    1 + 2 + 3 + 4 + 1 + 2 + 3 + 4 + 1 + 2 + 3 + 4 + 1 + 2 + 3 + 4 + 

Interlude
E |-------------------------------|-----------------------------------|
B |-------------------------------|-----------------------------------|
F#|-------------------------------|-----------------------------------|
B |-00000-------------------------|----------------------10\3-5-1-0---|

Verse
E |-----------------------------------------------------------------------------|
B |o---------------------------------------------------------------------------o|
F#|o---------------------------------------------------------------------------o|x4
B |--12-12-12-12-7-7-10-10-10-10-10-10-5-5-7-7-3-3-3-3-5-5-1-1-0-0-0-0-0-0-0-0--|

Pre Chorus
E |-----------------------------------------------------------------|
B |-----------------------------------------------------------------|
F#|-----------------------------------------------------------------|
B |-3---3---3-3---3-3---3---3-3---3-3---3---3-3---3-2---2---1---1---|
    1 + 2 + 3 + 4 + 1 + 2 + 3 + 4 + 1 + 2 + 3 + 4 + 1 + 2 + 3 + 4 + 

Chorus
E |-----------------------------------------------------------------|
B |-----------------------------------------------------------------|
F#|-----5-3-5-------5-3-5---5-3-------------------------------------|
B |-0-0-------0-0-0-------0-----6-3---3-3-3-3-3-3-6---1-1-1-1-3-1-0-|
    1 + 2 + 3 + 4 + 1 + 2 + 3 + 4 + 1 + 2 + 3 + 4 + 1 + 2 + 3 + 4 + 

E |-----------------------------------------------------------------|
B |-----------------------------------------------------------------|
F#|-----5-3-5-------5-3-5---5-3-------------------------------------|
B |---0-------0-0-0-------0-----6-3---3-3-3-3-3-3-6---1-1-1-1-3-1-0-|
    1 + 2 + 3 + 4 + 1 + 2 + 3 + 4 + 1 + 2 + 3 + 4 + 1 + 2 + 3 + 4 + 

Chorus pt 2
E |-----------------------------------------------------------------------|
B |o---------------------------------------------------------------------o|
F#|o-----12\-5-/-8-/-10-/-12h13-12---------------------------------------o|
B |----0-----------------------------0-3---3-3-3-3-3-3-6-\-1-1-1-1-3-1-0--|
     1 + 2 + 3 + 4 + 1  + 2  +  3  + 4 + 1 + 2 + 3 + 4 + 1 + 2 + 3 + 4 + 

Bridge
E |-------------------------------------------------|
B |-------------------------------------------------|
F#|---------------------------------------------3b--|
B |---0--0--0-----0-0-----0--0--0-----0-1-0-3-------|
    1 + 2 + 3 + 4 + 1 + 2 + 3 + 4 + 1 + 2 + 3 + 4 + 

E |-------------------------------------------------|
B |-------------------------------------------------|
F#|-------------------------------------------------|
B |---0--0--0-----0-0-----0--0--0-----0-1-0-6-\-1---|
    1 + 2 + 3 + 4 + 1 + 2 + 3 + 4 + 1 + 2 + 3 + 4 + 

E |-------------------------------------------------|
B |-------------------------------------------------|
F#|---------------------------------------------3b--|
B |---0--0--0-----0-0-----0--0--0-----0-1-0-3-------|
    1 + 2 + 3 + 4 + 1 + 2 + 3 + 4 + 1 + 2 + 3 + 4 + 

E |-----------------------------------------------------|
B |-----------------------------------------------------|
F#|-----------------------------------------------------|
B |---0--0--0-----0-0-----0--0--0-----0-1-0-6-6-6-1-1-1-|
    1 + 2 + 3 + 4 + 1 + 2 + 3 + 4 + 1 + 2 + Tripl Tripl 

2:43
E |--------------------------------------------------|
B |o-------------------------------------------------|
F#|o---------------------------------------------3b--|
B |----1--1--1-----1-1-----1--1--1-----0-1-0-3-------|
     1 + 2 + 3 + 4 + 1 + 2 + 3 + 4 + 1 + 2 + 3 + 4 + 

E |--------------------------------------------------|
B |-------------------------------------------------o|
F#|-------------------------------------------------o|
B |---1--1--1-----1-1-----1--1--1-----0-1-0-6-\-0----|
    1 + 2 + 3 + 4 + 1 + 2 + 3 + 4 + 1 + 2 + 3 + 4 + 

Pre Chorus
E |-----------------------------------------------------------------|
B |-----------------------------------------------------------------|
F#|-----------------------------------------------------------------|
B |-3---3---3-3---3-3---3---3-3---3-3---3---3-3---3-2---2---1---1---|
    1 + 2 + 3 + 4 + 1 + 2 + 3 + 4 + 1 + 2 + 3 + 4 + 1 + 2 + 3 + 4 + 

E |-------------------------------------------------------|
B |-------------------------------------------------------|
F#|-------------------------0-0-5-5-3-3-2-2---------------|
B |-0-0-0-0-3-3-2-2-5-5-3-3-----------------5-5-5---7-----|

Chorus
E |----------------------------------------------------------------------|
B |----------------------------------------------------------------------|
F#|----------5-3-5-------5-3-5---5-3-------------------------------------|
B |-12-\-0-0-------0-0-0-------0-----6-3---3-3-3-3-3-3-6---1-1-1-1-3-1-0-|
         1 + 2 + 3 + 4 + 1 + 2 + 3 + 4 + 1 + 2 + 3 + 4 + 1 + 2 + 3 + 4 + 

E |-----------------------------------------------------------------|
B |-----------------------------------------------------------------|
F#|-----5-3-5-------5-3-5---5-3-------------------------------------|
B |---0-------0-0-0-------0-----6-3---3-3-3-3-3-3-6---1-1-1-1-3-1-0-|
    1 + 2 + 3 + 4 + 1 + 2 + 3 + 4 + 1 + 2 + 3 + 4 + 1 + 2 + 3 + 4 + 

Chorus pt 2
E |-----------------------------------------------------------------------|
B |o---------------------------------------------------------------------o|
F#|o-----12\-5-/-8-/-10-/-12h13-12---------------------------------------o|
B |----0-----------------------------0-3---3-3-3-3-3-3-6-\-1-1-1-1-3-1-0--|
     1 + 2 + 3 + 4 + 1  + 2  +  3  + 4 + 1 + 2 + 3 + 4 + 1 + 2 + 3 + 4 + 

Outro 3:36
E |-------------------------------------------------|
B |-------------------------------------------------|
F#|---------------------------------------------3b--|
B |---0--0--0-----0000----0--0--0-----0-1-0-3-------|
    1 + 2 + 3 + 4 + 1 + 2 + 3 + 4 + 1 + 2 + 3 + 4 + 

E |--------------------------------------------------------------|
B |--------------------------------------------------------------|
F#|--------------------------------------------------------------|
B |---0--0--0-----0000----0--0--0-----0-1-0-6-6-6-1-1-1-1--1--11-|
    1 + 2 + 3 + 4 + 1 + 2 + 3 + 4 + 1 + 2 + Tripl Tripl 1 + 2 + 

E |-------------------------------------------------|
B |-------------------------------------------------|
F#|---------------------------------------------3b--|
B |---0--0--0-----0000----0--0--0-----0-1-0-3-------|
    1 + 2 + 3 + 4 + 1 + 2 + 3 + 4 + 1 + 2 + 3 + 4 + 

E |-----------------------------------------------------|
B |-----------------------------------------------------|
F#|-----------------------------------------------------|
B |---0--0--0-----0000----0--0--0-----0-1-0-6-6-6-1-1-1-|
    1 + 2 + 3 + 4 + 1 + 2 + 3 + 4 + 1 + 2 + Tripl Tripl 

E |-------------------------------------------------|
B |-------------------------------------------------|
F#|---------------------------------------------3b--|
B |---0--0--0-----0000----0--0--0-----0-1-0-3-------|
    1 + 2 + 3 + 4 + 1 + 2 + 3 + 4 + 1 + 2 + 3 + 4 + 

E |-------------------------------------------------|
B |-------------------------------------------------|
F#|-------------------------------------------------|
B |---0--0--0-----0000----0--0--0-----0-1-0-6-\-1---|
    1 + 2 + 3 + 4 + 1 + 2 + 3 + 4 + 1 + 2 + 3 + 4 + 
Tab changed by Dave Vucko

=============================================================================



Music X Tabs www.mxtabs.net/basstabs.php
artist: slipknot
song: duality
album: vol.3 (The Subliminal Verses)
Tabbed by ;jamie cushion
jamienewambitionbassist
5 string Tuning=B,E,A,D,G
4 string tuning=B,F#,B,E
*=harmonic
b=bend
/=slide up
\-slide down
>=strum note no. of times

INTRO
|-----------------------|
|-----------------------|
|-----------------------|
|-----------------------|
|-0*------3*---6\1*-----|
 
|----------------------------------------------|      
|----------------------------------------------|
|----------------------------------------------| 
|----------------------------------------------|
|-0-0-0-0-0-0-0-0-/-3-3-3-3-3-3-3-6\1-1-3-1-0--|  

PRE VERSE
|----------------------------------|
|----------------------------------|
|----------------------------------|
|------------------------------3*b-|
|-0-0-0---0-0---0-0-0--0-1-0-3-----|

|----------------------------------|
|----------------------------------|
|----------------------------------|
|----------------------------------|
|-0-0-0---0-0---0-0-0--0-1-0-1--3b-| 

VERSE
|-----------------------------| 
|-----------------------------| 
|-----------------------------|  
|-----------------------------|  
|-7>>10>>>5>>>7>>>3>>>5>>>1>0-|


PRE CHORUS
|-----------------------------------|
|-----------------------------------|
|-----------------------------------|
|-----------------------------------|
|-3-3-3-3--3-3-3-3--3-3-3-3--2-2-3--|

CHORUS
|----------------------------------------------|      
|----------------------------------------------|
|----------------------------------------------| 
|----------------------------------------------|
|-0-0-0-0-0-0-0-0-/ 3-3-3-3-3-3-3-6\1-1-3-1-0--|  

CHORUS END
|--------------------| 
|--------------------| 
|--------------------|  
|--------------------|  
|-12///3--5---1-0----|

VERSE
|-----------------------------| 
|-----------------------------| 
|-----------------------------|  
|-----------------------------|  
|-7>>10>>>5>>>7>>>3>>>5>>>1>0-|

PRE CHORUS
|-----------------------------------|
|-----------------------------------|
|-----------------------------------|
|-----------------------------------|
|-3-3-3-3--3-3-3-3--3-3-3-3--2-2-3--|

CHORUS
|---------------------------------------------|-------------------------|   
|---------------------------------------------|-------------------------|
|---------------------------------------------|-0-3-3-3-5-5-5-8-8-8-7b--|
|---------------------------------------------|-------------------------|
|-0-0-0-0-0-0-0-0-/-3-3-3-3-3-3-3-6\1-1-3-1-0-|-0-3-3-3-5-5-5-8-8-8-7b--| 

BRIDGE RIFF 1
|----------------------------------|
|----------------------------------|
|----------------------------------|
|------------------------------3*b-|
|-0-0-0---0-0---0-0-0--0-1-0-3-----|

|----------------------------------|
|----------------------------------|
|----------------------------------|
|----------------------------------|
|-0-0-0---0-0---0-0-0--0-1-0-1--3b-|  

BRIDGE RIFF 2
|----------------------------------|
|----------------------------------|
|----------------------------------|
|------------------------------3*b-|
|-1-1-1---1-1---1-1-1--1-0-1-0-----|

|----------------------------------|
|----------------------------------|
|----------------------------------|
|----------------------------------|
|-1-1-1---1-1---1-1-1--1-0-1-0--3b-|

BRIDGE RIFF 3
|-----------------------------------|
|-----------------------------------|
|-----------------------------------|
|-----------------------------------|
|-3-3-3-3--3-3-3-3--3-3-3-3--2-2-3--|

BRIDGE END
|--------------------| 
|--------------------| 
|--------------------|  
|--------------------|  
|-7>>>10>>>>3>>>>5>>>|

CHORUS
|---------------------------------------------|------------------------|    
|---------------------------------------------|------------------------|
|---------------------------------------------|0-3-3-3-5-5-5-8-8-8-7b--|
|---------------------------------------------|------------------------|
|-0-0-0-0-0-0-0-0-/-3-3-3-3-3-3-3-6\1-1-3-1-0-|0-3-3-3-5-5-5-8-8-8-7b--| 

END RIFF 1
|----------------------------------|
|----------------------------------|
|----------------------------------|
|------------------------------3b--|
|-0-0-0---0-0---0-0-0--0-1-0-3-----|

|----------------------------------|
|----------------------------------|
|----------------------------------|
|----------------------------------|
|-0-0-0---0-0---0-0-0--0-1-0-1--3b-|  

im pretty sure this is correct. this is one of the best song ive tabbed.
Suggest correction
comments
print report bad tab
25 comments total. Showing first comments.
0 reply
4-string-4-eva 240 Jul 11, 2004 12:00 AM

a lot of these harmonics are wrong 1 and 3 are not harmonics i dont think

0 reply
_TheBassist01_ 7,245 May 07, 2005 12:00 AM

yea one and 3 arent... just above three and just below four are. and an open harmonic? You got it close good tab

0 reply
_TheBassist01_ 7,245 May 07, 2005 12:00 AM

yea one and 3 arent... just above three and just below four are. and an open harmonic? You got it close good tab

guest
You may want to rate the tab now too:
select rating
Wanna post a correction for this tab? Suggest correction