Oops, an error
Loading. Please wait.

Duality Tab

296,288 views 147 this week
69 commentsread comments
1 2 3 4 5
x 44
add to favorites
launch autoscroll
font size
0
reset
how to read this tab
guitar tuner
Autoscroll
slow
fast
+/-
esc
set tempo
stop
Help us to improve Ultimate-Guitar.com Take our survey!
×
Author
Tabbed by Amir Dhillon{PLOP]


 "Push my finger's into my"
 Bass
e|----------------------|
B|----------------------|
G|----------------------|
D|----------------------|  X2
A|----------------------|
E|-7------3-----2-1-----|

 Gtr 1 Riff 1
e|-----------------------------------------------|
B|-----------------------------------------------|  x2
G|-----------------------------------------------|
D|-----------------------------------------------|  This isn't the actual amount
A|-----------------------------------------------|  you hit them this is just example
E|-7-7-7-7-7-7-7-7--3-3-3-3-3---2-2-2-1-1-1-1-1--|  of the frets you strike.
  . . . . . . . .  . . . . .   . . . . . . . .

 Gtr 1&2 Riff 2
e|-----------------------------------------------|
B|-----------------------------------------------|
G|-----------------------------------------------| x2
D|-----------------------------------------------|  
A|-----------------------------------------------|  
E|-7-7-7-7-7-7-7-7--3-3-3-3-3---2-2-2-1-1-1-1-1--|

 Gtr 1&2  Riff 3
e|----------------------------------|
B|----------------------------------|
G|----------------------------------|
D|-0-0-0---0-0---0-0-0--0-1-0-1-----|
A|-0-0-0---0-0---0-0-0--0-1-0-1-3*B-|
E|-0-0-0---0-0---0-0-0--0-1-0-1-----|
  . . .   . .   . . .  . . . .

 Gtr 1&2  Riff 4
e|----------------------------------|
B|----------------------------------|
G|----------------------------------|
D|-0-0-0---0-0---0-0-0--0-1-0-1-----|
A|-0-0-0---0-0---0-0-0--0-1-0-1-----|
E|-0-0-0---0-0---0-0-0--0-1-0-1--3*-|
  . . .   . .   . . .  . . . .

 Gtr1  Riff 5A
e|-----------------------------|
B|-----------------------------|
G|-----------------------------|
D|-----------------------------|
A|-----------------------------|
E|-7T--10T--5T--7T--3T--5T--1T-|
  .    .   .   .   .   .   .

 Gt1  Riff 5B
e|-----------------------------|
B|-----------------------------|
G|-----------------------------|
D|-----------------------------|
A|-----------------------------|
E|-7T--10T--5T--7T--3T--5T--0T-|
  .    .   .   .   .   .   .

Gtr2 does some *** Riff 6


 gtr 1&2 Riff 7
e|-----------------------------------|
B|-----------------------------------|
G|-----------------------------------|
D|-3-3-3-3--3-3-3-3--3-3-3-3---------|
A|-3-3-3-3--3-3-3-3--3-3-3-3---------|
E|-3-3-3-3--3-3-3-3--3-3-3-3--3-3-3*-|


 Gtr 1 Riff 8
e|-----------------------------------------------|
B|-----------------------------------------------|
G|-----------------------------------------------|   
D|-7-7-7-7-7-7-7-7--3-3-3-3-3---2-2-2-1-1-1-1-1--| 
A|-7-7-7-7-7-7-7-7--3-3-3-3-3---2-2-2-1-1-1-1-1--|
E|-7-7-7-7-7-7-7-7--3-3-3-3-3---2-2-2-1-1-1-1-1--|

 Gtr 2 Riff 9
e|--------------------|
B|--------------------|
G|--0-3-3-3-5-5-5-8-7-|
D|--------------------|
A|--------------------|
E|--------------------|

Riff 5A

 Gtr1 Riff 10
e|-------------------|
B|-------------------|
G|-------------------|
D|-------------------|
A|-------------------|
E|-7T--10T--5T--7T---|
  .    .   .   .   

 Riff 11
e|---------|
B|---------|
G|---------|
D|-3-5-1-0-|
A|-3-5-1-0-|
E|-3-5-1-0-|

Riff 5A
Riff 5B
Riff 5A & Riff 6
Riff 5B & Riff 6

Riff 7

Riff 8 & Riff 9

Riff 3
Riff 4
Riff 3
Riff 4

 Gtr 1&2  Riff 12
e|----------------------------------|
B|----------------------------------|
G|----------------------------------|
D|-1-1-1---1-1---1-1-1--1-0-1-0-----|
A|-1-1-1---1-1---1-1-1--1-0-1-0-3*B-|
E|-1-1-1---1-1---1-1-1--1-0-1-0-----|
  . . .   . .   . . .  . . . .

 Gtr 1&2  Riff 13
e|----------------------------------|
B|----------------------------------|
G|----------------------------------|
D|-1-1-1---1-1---1-1-1--1-0-1-0-----|
A|-1-1-1---1-1---1-1-1--1-0-1-0-----|
E|-1-1-1---1-1---1-1-1--1-0-1-0--3*-|
  . . .   . .   . . .  . . . .

Riff 7
Riff 8 & Riff 9
Riff 3
Riff 4 End



************************************

|  .   Palm Mute
|  *   Pinched Harmonic
|  B   Bend
|  T   Tremolo

************************************
Suggest correction
comments
print report bad tab
69 comments total. Showing first comments.
-2 reply
ferius 10 May 06, 2004 12:00 AM

What tuning is used in this song?

0 reply
ferius 10 May 06, 2004 12:00 AM

And tell me how can i bend HARMONICS??

0 reply
the_legend 380 May 07, 2004 12:00 AM

im guessing its a pinch harmonic, but you can bend harmonics by putting your finger on the actual fret and bending the string on the metal.

guest
You may want to rate the tab now too:
select rating
Wanna post a correction for this tab? Suggest correction