Oops, an error
Loading. Please wait.

Duality Tab

13,476 views 3 this week
6 commentsread comments
1 2 3 4 5
worth learning
x 19
add to favorites
launch autoscroll
font size
0
reset
how to read this tab
guitar tuner
Autoscroll
slow
fast
+/-
esc
set tempo
stop
Help us to improve Ultimate-Guitar.com Take our survey!
×

this is the new song and it rules the tabs i seen 4 it r wrong but thtat can be forgiven
considering its just out so i decided 2 help all the maggets out there by doing it rite.
this is 100% rite!


song-duality
composer-slipknot
tuning-Drop B (B F# B E G# C#)
tabber-derek johnston


intro/bass

then


C#-----------------------------------------------
G#-----------------------------------------------
E------------------------------------------------  x2
B------------------------------------------------
F#-----------------------------------------------
B---000000033333333366111111111------------------


this bit was tricky 4 the squeels you have 2 hold it 4 a second then bend it.
Pre-verse
C#------------------------------------------------
G#-------------------------Ph---------------------
E--------------------------3^--------------------- x1
B----00-00-00--0-0-0--0000------------------------
F#---00-00-00--0-0-0--0000------------------------
B----00-00-00--0-0-0--0000------------------------


then this 

C#------------------------------------------------
G#------------------------------------------------
E-------------------------------------------------
B----00-00-00--0-0-0--0000--PH--------------------
F#---00-00-00--0-0-0--0000--3^--------------------
B----00-00-00--0-0-0--0000------------------------


subliminal verse. lol
C#------------------------------------------------
G#------------------------------------------------
E-------------------------------------------------
B-------------------------------------------------
F#------------------------------------------------
B---7777777101010101066666677777773333333666661111
    |_____________________________________________|
            Tremelo pick + Palm mute

C#------------------------------------------------
G#------------------------------------------------
E------------------------------------------------- x9
B-------------------------------------------------
F#------------------------------------------------
B--11111000000------------------------------------
   |__________|

Pre-chorus
C#------------------------------------------------
G#------------------------------------------------
E-------------------------------------------------
B----333--333-333-33--PH--------------------------
F#---333--333-333-33--3^--------------------------
B----333--333-333-33------------------------------


Chorus
C#------------------------------------------------
G#------------------------------------------------
E-------------------------------------------------
B----0000000--333333--666---111111-0-------------- x2
F#---0000000--333333--666---111111-0--------------
B----0000000--333333--666---111111-0--------------


Verse 2
C#-------------------------------------------------
G#-------------------------------------------------
E--------------------------------------------------
B--------------------------------------------------
F#-------------------------------------------------
B----7777777710101010106666667777773333333666666611


C#--------------------------------------------------
G#--------------------------------------------------
E--------------------------------------------------- x1
B-----------------3-5-1-0---------------------------
F#----------------3-5-1-0---------------------------
B---111111100000--3-5-1-0---------------------------


C#--------------------------------------------------
G#--------------------------------------------------
E---------------------------------------------------  x9
B---------------------------------------------------
F#--------------------------------------------------
B---777777710101010666667777733333366666111111000000

Pre chorus
C#--------------------------------------------------
G#--------------------------------------------------
E--------------------------------------------------- x1
B-----333--333--333--333--333--PH-------------------
F#----333--333--333--333--333--3^-------------------
B-----333--333--333--333--333-----------------------

Chorus
C#---------------------------------------------------
G#---------------------------------------------------
E---------------------------------------------------- x2
B----000000--333333--6666---11111--------------------
F#---000000--333333--6666---11111--------------------
B----000000--333333--6666---11111--------------------


Interlude 
C#---------------------------------------------------
G#---------------------------Ph----------------------
E----------------------------3^----------------------
B----00-00-00--000--0000--00-------------------------  __
F#---00-00-00--000--0000--00-------------------------    |
B----00-00-00--000--0000--00-------------------------    |
                                                         |
                                                         |
C#----------------------------------------------------   |  x2
G#----------------------------------------------------   |
E-----------------------------------------------------   |
B---00-00-00--000--0000-00--Ph------------------------ __|
F#--00-00-00--000--0000-00--3^------------------------
B---00-00-00--000--0000-00----------------------------


C#----------------------------------------------------
G#------------------------PH--------------------------
E-------------------------3^-------------------------- x2
B--11-11-11--111--1111-11-----------------------------
F#-11-11-11--111--1111-11-----------------------------
B--11-11-11--111--1111-11-----------------------------



C#-----------------------------------------------------
G#-----------------------------------------------------
E------------------------------------------------------
B--11-11-11--111--1111-11-PH--------------------------- x2
F#-11-11-11--111--1111-11-3^---------------------------
B--11-11-11--111--1111-11------------------------------


C#-----------------------------------------------------
G#-----------------------------------------------------
E------------------------------------------------------
B---33-33-333-333-333--PH------------------------------ x1
F#--33-33-333-333-333--3^------------------------------
B---33-33-333-333-333----------------------------------


C#-----------------------------------------------------
G#-----------------------------------------------------
E------------------------------------------------------
B---0000000--33333--6666--111111111-------------------- x 2
F#--0000000--33333--6666--111111111--------------------
B---0000000--33333--6666--111111111--------------------


ending
C#-----------------------------------------------------
G#--------------------------PH-------------------------
E---------------------------3^-------------------------
B---00-00-00--000--0000-00-----------------------------
F#--00-00-00--000--0000-00-----------------------------
B---00-00-00--000--0000-00-----------------------------


C#-----------------------------------------------------
G#-----------------------------------------------------
E--------------------------Ph--------------------------
B--00-00-00--000--0000-00--3^--------------------------
F#-00-00-00--000--0000-00------------------------------
B--00-00-00--000--0000-00------------------------------


thats all there is to it i know that some of the strums are wrong but the
tab is rite so if u got any questions or want me to fix it then e-mail me
Derek_6_6_6"hotmail.com
Suggest correction
comments
print report bad tab
6 comments total. Showing first comments.
0 reply
Xx_banx 10 wrote on May 27 2004, 12:00 am

its maggOts

0 reply
Daniel182col 285 wrote on July 29 2004, 12:00 am

......

0 reply
eat 20 wrote on August 18 2004, 12:00 am

I CANT BELIEVE U SPELT MAGGOTS WRONG!

guest
You may want to rate the tab now too:
select rating
Please do not post tabs as comments. Select "correction" instead!