Oops, an error
Loading. Please wait.

Duality Bass Tab

version 4
3,894 views 3 this week
no commentswrite comment
1 2 3 4 5
please rate
add to favorites
launch autoscroll
font size
0
reset
guitar tuner
Autoscroll
slow
fast
+/-
esc
set tempo
stop
Help us to improve Ultimate-Guitar.com Take our survey!
×
Author
Difficulty
Tuning
novice
B F# B E G# C#
Band: Slipknot
Song: Duality
Album: Vol. 3: The Subliminal Verses
Tuning: B,F#,B,E


Start out with a little fuzz effect for the intro.

"into my eyes"
E /--------------------------------------------------------------/   x2
B /--------------------------------------------------------------/
F#/------555555555555555-8-88-888-11/-666666---------------------/
B /--------------------------------------------------------------/

"...I have to take" Its pretty much the same thing, just down an octave.
E /--------------------------------------------------------------/   x2
B /--------------------------------------------------------------/
F#/--------------------------------------------------------------/
B /-----------000000000000000-3333333-6/-111111------------------/

This is the real heavy part before the verse. Only do this once.
E /--------------------------------------------------------------/
B /--------------------------------------------------------------/
F#/---------------------------------3B---------------------------/
B /------0-0-0--000--0-0-0--0-0-0-3------------------------------/

Then play this the second time, then restart.
E /--------------------------------------------------------------/
B /--------------------------------------------------------------/
F#/--------------------------------------------------------------/
B /------0-0-0--000--0-0-0--0-0-0-0-6p5\-1-----------------------/

Theres a stop and the guitar plays the verse riff once, then go into this.
Its a weird riff but I think its right.
E /--------------------------------------------------------------/   x8
B /--------------------------------------------------------------/
F#/--------------------------------------------------------------/
B /-------7~-10-5-7-3-5-4-1-0------------------------------------/

Pre-chorus riff. Short and sweet.
E /-------------------------------------------------------------/
B /-------------------------------------------------------------/
F#/-------------------------------------------------------------/
B /------3-3-33-33-3-33-33-3-33-33-3-33-3-----------------------/

Chorus
E /------------------------------------------------------------/    x2
B /------------------------------------------------------------/
F#/------------------------------------------------------------/
B /-----------000000000000000-3333333-6/-111111----------------/

After the guitar and drums do the verse riff once it comes back like this.
E /------------------------------------------------------------/
B /------------------------------------------------------------/
F#/------------------------------------------------------------/
B /-----3--5--1-0----------------------------------------------/

Verse riff again, but only 4 times this time
E /--------------------------------------------------------------/   x4
B /--------------------------------------------------------------/
F#/--------------------------------------------------------------/
B /-------7~-10-5-7-3-5-4-1-0------------------------------------/

Pre-chorus again
E /-------------------------------------------------------------/
B /-------------------------------------------------------------/
F#/-------------------------------------------------------------/
B /------3-3-33-33-3-33-33-3-33-33-3-33-3-----------------------/

Chorus again, but 4 times now
E /------------------------------------------------------------/    x4
B /------------------------------------------------------------/
F#/------------------------------------------------------------/
B /-----------000000000000000-3333333-6/-111111----------------/

Then this thing again, twice
E /--------------------------------------------------------------/  x2
B /--------------------------------------------------------------/
F#/---------------------------------3B---------------------------/
B /------0-0-0--000--0-0-0--0-0-0-3------------------------------/

E /--------------------------------------------------------------/
B /--------------------------------------------------------------/
F#/--------------------------------------------------------------/
B /------0-0-0--000--0-0-0--0-0-0-0-6p5\-1-----------------------/

Then switch to this
E /--------------------------------------------------------------/  x2
B /--------------------------------------------------------------/
F#/---------------------------------3B---------------------------/
B /------1-1-1--111--1-1-1--1-1-1-3------------------------------/

E /--------------------------------------------------------------/
B /--------------------------------------------------------------/
F#/--------------------------------------------------------------/
B /------1-1-1--111--1-1-1--1-1-1-1-6p5\-1-----------------------/

Pre-chorus again
E /-------------------------------------------------------------/
B /-------------------------------------------------------------/
F#/-------------------------------------------------------------/
B /------3-3-33-33-3-33-33-3-33-33-3-33-3-----------------------/

Theres a crazy thing right after that, I think its just this played faster
E /--------------------------------------------------------------/   x4
B /--------------------------------------------------------------/
F#/--------------------------------------------------------------/
B /-------7~-10-5-7-3-5-4-1-0------------------------------------/

Chorus again, but 4 times again
E /------------------------------------------------------------/    x4
B /------------------------------------------------------------/
F#/------------------------------------------------------------/
B /-----------000000000000000-3333333-6/-111111----------------/

Then keep doing this until the song ends.
E /--------------------------------------------------------------/  x2
B /--------------------------------------------------------------/
F#/---------------------------------3B---------------------------/
B /------0-0-0--000--0-0-0--0-0-0-3------------------------------/

E /--------------------------------------------------------------/
B /--------------------------------------------------------------/
F#/--------------------------------------------------------------/
B /------0-0-0--000--0-0-0--0-0-0-0-6p5\-1-----------------------/

Done! My first tab, please rate!
Suggest correction
What's this?
You can suggest a correction to this tab. Community and Mods will review your correction and vote to approve or reject it.
comments
We did not receive enough feedback on this tab! Please rate:
print report bad tab
1 2 3 4 5
guest
You may want to rate the tab now too:
select rating
Please do not post tabs as comments. Select "correction" instead!