Oops, an error
Loading. Please wait.

Duality Bass Tab

version 5
22,529 views 21 this week
6 commentsread comments
1 2 3 4 5
accurate
x 6
add to favorites
launch autoscroll
font size
0
reset
guitar tuner
Autoscroll
slow
fast
+/-
esc
set tempo
stop
Help us to improve Ultimate-Guitar.com Take our survey!
×
Author
Song: Duality
Artist: Slipknot
Album: VOl.3

http://www.youtube.com/user/5lipknot1
Tabbed by Troy Ellis ^^ vist my youtube page i have some covers.
I will post a video on ultimate-guitar.com on how to play this song (if they accept it). ;)

Video of me playing this: 
http://www.youtube.com/watch?v=K1D05A6yDYg&feature=channel_page

Ok this tab is about 100% correct this my first so i hope you like it.
This song is played on a 4string bass.

I will post a video on how to play this soon i will update this file when there is one.

Tunning: B-F#-B-E

Riff 0: (bass doesn't do this part)

E |------------------|
B |------------------|
F#|-0~~~~3~~~~~6/1~~~|
B |------------------|

Riff1 / Intro:
0:16 - 0:29

E |-----------------------------------------|
B |------------0000-------------------------|
F#|----35---35-----35-----------------------| (This is what Paul Gray plays i am 100% sure)
B |-00---00----------0-3333333/6\-111111----| (I listened to the jam session with Roy) x2

Riff2 / Pre-Verse

E |---------------------| |-------------------------|
B |---------------------| |-------------------------|
F#|-------------------3b| |-------------------------| on the CD version x4
B |-000-00-000-0-1-0-3--| |-000-00-000-0-1-0-3-0-1b-| on the radio version x2

Riff3 / Verse

E |-----------------------------------------------------|
B |-----------------------------------------------------|
F#|-----------------------------------------------------| x8
B |-12121212-7777-10101010-5555-7777-3333-5555-1111-0000|

Riff4 / Pre-Chorus

E |------------------------|
B |------------------------|
F#|------------------------|
B |-3-3-33-3-3-33-333-22-1-|

Riff5 / Chorus

E |-----------------------------------------|
B |------------0000-------------------------|
F#|----35---35-----35-----------------------| (This is what Paul Gray plays i am 100% sure)
B |-00---00----------0-3333333/6\-111-1-3-1-| (I listened to the jam session with Roy) x2

Riff6 / Fill

E |--------------------|
B |--------------------|
F#|--------------------| x1
B |-10/////////3-5-1-0-|

Riff7 / Verse

E |-----------------------------------------------------|
B |-----------------------------------------------------|
F#|-----------------------------------------------------| x4
B |-12121212-7777-10101010-5555-7777-3333-5555-1111-0000|

Riff8 / Chorus section 1

E |-----------------------------------------|
B |------------0000-------------------------|
F#|----35---35-----35-----------------------| (This is what Paul Gray plays i am 100% sure)
B |-00---00----------0-3333333/6\-111-1-3-1-| (I listened to the jam session with Roy) x2

Riff8 / Chorus section 2

E |---------------------------------------------|
B |---------------------------------------------|
F#|---12\5/8/10/12H13P12------------------------| x2
B |-0--------------------0-3333333\6/-111-1-3-1-|

Riff9 / Break Down section 1

E |---------------------| |-------------------------|
B |---------------------| |-------------------------|
F#|-------------------3b| |-------------------------| x2
B |-000-00-000-0-1-0-3--| |-000-00-000-0-1-0-3-0-1b-|

Riff9 / Break Down section 2 (heavy)
E |---------------------| |-------------------------|
B |---------------------| |-------------------------|
F#|-------------------3b| |-------------------------| x2
B |-111-11-111-0-1-0-3--| |-111-11-111-0-1-0-3-0-1b-|

Riff10 / Pre-Chorus section 1

E |------------------------|
B |------------------------|
F#|------------------------|
B |-3-3-33-3-3-33-333-22-1-|

Riff10 / pre-Chorus section 2

E |---------------------------|
B |---------------------------|
F#|---------------------------| x1
B |-0-3-2-5-6-8-11-7-10-7-5-7-|

Riff11 / Chorus section 1

E |-----------------------------------------|
B |------------0000-------------------------|
F#|----35---35-----35-----------------------| (This is what Paul Gray plays i am 100% sure)
B |-00---00----------0-3333333/6\-111-1-3-1-| (I listened to the jam session with Roy) x2

Riff11 / Chorus section 2

E |---------------------------------------------|
B |---------------------------------------------|
F#|---12\5/8/10/12H13P12------------------------| x2
B |-0--------------------0-3333333\6/-111-1-3-1-|


Riff12 / Outro section 1

E |---------------------| |-------------------------|
B |---------------------| |-------------------------|
F#|-------------------3b| |-------------------------| x1
B |-000-00-000-0-1-0-3--| |-000-00-000-0-1-0-3-0-1b-|

Riff12 / Outro section 2

E |---------------------| |-------------------------|
B |---------------------| |-------------------------|
F#|-------------------3b| |-------------------------| x1
B |-000~00~000~0-1-0-3--| |-000~00~000~0-1-0-3-0-1b-|

Riff12 / Outro section 3

E |---------------------| |-------------------------|
B |---------------------| |-------------------------|
F#|-------------------3b| |-------------------------| x1
B |-000-00-000-0-1-0-3--| |-000-00-000-0-1-0-3-0-1X-|

b = bend
\ = slide down
/ = slide up
H = Hammer On
P = Pull Off
~ = let the note ring / hold note
X = stop the note

This tab is 100% correct i have herd Paul Gray play during a jam session.
http://www.youtube.com/user/5lipknot

Stay (SIC)
Suggest correction
comments
print report bad tab
6 comments total. Showing first comments.
0 reply
crazybasser42! 71 wrote on November 29 2008, 05:45 pm

just because you heard him in a jam session doen't mean you tabbed it right. he also could have played it differently. people do that

0 reply
5lipknot1 132 wrote on December 5 2008, 05:32 am

No there was a bit where you saw paul play it and those were the notes he hit ;)

0 reply
5lipknot1 132 wrote on December 28 2008, 03:58 am

I made a mistake during the intro/Chorus its played

E |--------------------------------------|
B |------------0000----------------------|
F#|----35---35-----35--------------------|
B |-00---00----------0-3333333/6\-111111-|

And the pre-chorus is

E |------------------------|
B |------------------------|
F#|------------------------|
B |-3-3-33-3-3-33-333-22-1-|

guest
You may want to rate the tab now too:
select rating
Please do not post tabs as comments. Select "correction" instead!