Oops, an error
Loading. Please wait.

Duality Bass Tab

version 6
37,007 views 99 this week
5 commentsread comments
1 2 3 4 5
excellent!
x 22
add to favorites
launch autoscroll
font size
0
reset
guitar tuner
Tab Pro tools
  • play this tab
  • loop segment
  • change instrument
  • show fretboard
  • metronome
×
Best way to learn
"Duality"
Autoscroll
slow
fast
+/-
esc
set tempo
stop
Contributor
------------------------------------------------------------------------
			     DUALITY - SLIPKNOT
------------------------------------------------------------------------

Tabbed By : rockthe4string
e-mail: rockinthe4string@hotmail.com
Artist: Paul Gray

i use ernie ball power slinky strings. the gauge is 110,90,75,55. these keep
the tension so your string are not floppy from the low tuning and sound like
ass and use the bridge pickup. these are also the strings that paul uses.

Tuning: BF#BE

starts with vocals and guitar for the first few bars. bass comes in on the "and"
beat just after the drums start. its quick, listen closely and youll hear it. enjoy.

     intro 2X
E |----------------------------------------------------------------------|
B |----------------------------------------------------------------------|
F#|----------------------------------------------------------------------|
B |000000000000003-3333336/11111310--------------------------------------|

       2x choking the open b's
E |----------------------------------------------------------------------|
B |----------------------------------------------------------------------|
F#|---------------3br----------------------------------------------------|
B |000-00-000-0103----000-00-000-0106/1----------------------------------|

     verse  8x                            verse to chorus tag
E |------------------------------------{---------------------------------|
B |------------------------------------{---------------------------------|
F#|------------------------------------{---------------------------------|
B |121212127101010101055773355110000---{333333333333332211---------------|

     chorus 2x                          end on the 2nd time
E |----------------------------------{-----------------------------------|
B |----------------------------------{-----------------------------------|
F#|--535---535-53--------------------{-----------------------------------|
B |00---000---0--63-3333336/11111310-{---5555----------------------------|

     riff between 1st chorus and 2nd verse
E |----------------------------------------------------------------------|
B |----------------------------------------------------------------------|
F#|----------------------------------------------------------------------|
B |--10//3510------------------------------------------------------------|

     verse repeats 4x with tag on the end


     2nd chorus      2x.......then.........2x
E |----------------------------------{-----------------------------------|
B |----------------------------------{-----------------------------------|
F#|--535---535-53--------------------{-12/5\8\10\121312------------------|
B |00---000---0--63-3333336/11111310-{-----------------03333336/11111310-|

      1x
E |----------------------------------------------------------------------------|
B |----------------------------------------------------------------------------|
F#|---------------3br----------------------------------3br---------------------|
B |000-00-000-0103----000-00-000-0106/1-000-00-000-0103---000-00-000-010666333-|

      2x
E |----------------------------------------------------------------------|
B |----------------------------------------------------------------------|
F#|---------------3br----------------------------------------------------|
B |111-11-111-0103----111-11-111-0106/0----------------------------------|

      1x
E |----------------------------------------------------------------------|
B |----------------------------------------------------------------------|
F#|----------------------------------------------------------------------|
B |333333333333332211000033225533771212771010995557----------------------|


         3nd chorus      2x.......then.................2x
E |-------------------------------------{-----------------------------------|
B |-------------------------------------{-----------------------------------|
F#|-----535---535-53--------------------{-12/5\8\10\121312------------------|
B |10/00---000---0--63-3333336/11111310-{-----------------03333336/11111310-|


     play 2x choking the open b's...the play 2x letting the open b's ring
E |--------------------------------------------------------------------------------|
B |--------------------------------------------------------------------------------|
F#|-----------------3br------------------------------------3br---------------------|
B |000-0000-000-0103----000-00-000-0106/1-000-0000-000-0103---000-00-000-010666333-|

     play 2x choking the open b's
E |-------------------------------------------------------------------------------|
B |-------------------------------------------------------------------------------|
F#|-----------------3br------------------------------------3br--------------------|
B |000-0000-000-0103----000-00-000-0106/1-000-0000-000-0103---000-00-000-0106/1---|
comments
print report bad tab
5 comments total. Showing first comments. show 1 bad comment
+5 reply
Z3itg3ist wrote on February 1 2010, 03:42 pm

For those who dont realise, this is the perfect tab of Duality, look for the videos of Paul Grey Behind the Player and he goes through this exact tab, thanks for posting this, I had trouble on the riff before the last chorus

+2 reply
Devindude123123 wrote on December 18 2010, 04:52 pm

Droped B, look on the lines it shows the String (B,F#,B,E) which is Slipknot's normal tuning

I want to post or [tab]
guest
You may want to rate the tab now too:
select rating
Please do not post tabs as comments. Select "correction" instead!