Oops, an error
Loading. Please wait.

Duality Bass Tab

version 6
38,462 views 60 this week
5 commentsread comments
1 2 3 4 5
x 24
add to favorites
launch autoscroll
font size
0
reset
guitar tuner
Autoscroll
slow
fast
+/-
esc
set tempo
stop
Help us to improve Ultimate-Guitar.com Take our survey!
×
Artist: Slipknot
Song: Duality
Tabbed By : rockthe4string
e-mail: rockinthe4string@hotmail.com
Artist: Paul Gray
Tuning: BF#BE

[Intro] x2
E |----------------------------------------------------------------------|
B |----------------------------------------------------------------------|
F#|----------------------------------------------------------------------|
B |000000000000003-3333336/11111310--------------------------------------|

       2x choking the open b's
E |----------------------------------------------------------------------|
B |----------------------------------------------------------------------|
F#|---------------3br----------------------------------------------------|
B |000-00-000-0103----000-00-000-0106/1----------------------------------|

[verse]  8x                            verse to chorus tag
E |------------------------------------|---------------------------------|
B |------------------------------------|---------------------------------|
F#|------------------------------------|---------------------------------|
B |121212127101010101055773355110000---|333333333333332211---------------|

 2x                          end on the 2nd time
E |----------------------------------|-----------------------------------|
B |----------------------------------|-----------------------------------|
F#|--535---535-53--------------------|-----------------------------------|
B |00---000---0--63-3333336/11111310-|---5555----------------------------|

     riff between 1st chorus and 2nd verse
E |----------------------------------------------------------------------|
B |----------------------------------------------------------------------|
F#|----------------------------------------------------------------------|
B |--10//3510------------------------------------------------------------|

[verse repeats 4x with tag on the end]

[Chorus] x2      2x.......then.........2x
E |----------------------------------|-----------------------------------|
B |----------------------------------|-----------------------------------|
F#|--535---535-53--------------------|-12/5\8\10\121312------------------|
B |00---000---0--63-3333336/11111310-|-----------------03333336/11111310-|

E |----------------------------------------------------------------------------|
B |----------------------------------------------------------------------------|
F#|---------------3br----------------------------------3br---------------------|
B |000-00-000-0103----000-00-000-0106/1-000-00-000-0103---000-00-000-010666333-|

E |----------------------------------------------------------------------|
B |----------------------------------------------------------------------|
F#|---------------3br----------------------------------------------------|
B |111-11-111-0103----111-11-111-0106/0----------------------------------|

E |----------------------------------------------------------------------|
B |----------------------------------------------------------------------|
F#|----------------------------------------------------------------------|
B |333333333333332211000033225533771212771010995557----------------------|

[Chorus 3]      2x.......then.................2x
E |-------------------------------------|-----------------------------------|
B |-------------------------------------|-----------------------------------|
F#|-----535---535-53--------------------|-12/5\8\10\121312------------------|
B |10/00---000---0--63-3333336/11111310-|-----------------03333336/11111310-|


[play 2x choking the open b's...the play 2x letting the open b's ring]
E |--------------------------------------------------------------------------------|
B |--------------------------------------------------------------------------------|
F#|-----------------3br------------------------------------3br---------------------|
B |000-0000-000-0103----000-00-000-0106/1-000-0000-000-0103---000-00-000-010666333-|

[play 2x choking the open b's]
E |-------------------------------------------------------------------------------|
B |-------------------------------------------------------------------------------|
F#|-----------------3br------------------------------------3br--------------------|
B |000-0000-000-0103----000-00-000-0106/1-000-0000-000-0103---000-00-000-0106/1---|


************************************

| /   Slide up
| br  Bend release
| \   Slide down

************************************
Suggest correction
comments
print report bad tab
5 comments total. Showing first comments. show 1 bad comment
+6 reply
Z3itg3ist 10 Feb 01, 2010 03:42 PM

For those who dont realise, this is the perfect tab of Duality, look for the videos of Paul Grey Behind the Player and he goes through this exact tab, thanks for posting this, I had trouble on the riff before the last chorus

+2 reply
Devindude123123 52 Dec 18, 2010 04:52 PM

Droped B, look on the lines it shows the String (B,F#,B,E) which is Slipknot's normal tuning

guest
You may want to rate the tab now too:
select rating
Wanna post a correction for this tab? Suggest correction