Oops, an error
Loading. Please wait.
273,267 views 297 this week
38 commentsread comments
1 2 3 4 5
x 239
add to favorites
×
Save as Personal and add changes to this tab that will be seen only by you. Learn more ›
×
You can save this tab as Personal to edit and correct it or add notes. All changes will be seen only by you. Learn more »
save as personal
new!
launch autoscroll
font size
0
reset
how to read this tab
guitar tuner
backing track
0:00
0:00
Autoscroll
slow
fast
+/-
esc
set tempo
stop
Author
Difficulty
Tuning
intermediate
B F# B E G# C#
Drop B Tuning, for those who didn't know.
(Explained below)
Drop D tuning, then 1 and 1|2 down. So B, F#, B, E, G#, C#.

(Gtr. 1: Mick Thomson)
(Gtr. 2: James Root)

[Intro/Chorus]
"I push my fingers into my-" (whispered)
(Gtr. 1) (Dist.)
C#|-----------------------------------------------------------------|
G#|-----------------------------------------------------------------|
E |-----------------------------------------------------------------|
B |-----------------------------------------------------------------|
F#|-----------------------------------------------------------------|
B |---0--0--0--0--0--0--0--0--0--0--0--0--0--1/2/3--3---------------|

C#|-----------------------------------------------------------------|
G#|-----------------------------------------------------------------|
E |-----------------------------------------------------------------|
B |-----------------------------------------------------------------|
F#|-----------------------------------------------------------------|
B |---3--3--3--3--3--3--3--6--6--1--1--1--1--3--1--0----------------|
                                                    [Repeat]

(Gtr. 2) (Dist.)
C#|-----------------------------------------------------------------|
G#|-----------------------------------------------------------------|
E |-----------------------------------------------------------------|
B |-----------------------------------------------------------------|
F#|-----------------------------------------------------------------|
B |---0--0--0--0--0--0--0--0--0--0--0--0--0--0--0--3----------------|

C#|-----------------------------------------------------------------|
G#|-----------------------------------------------------------------|
E |-----------------------------------------------------------------|
B |-----------------------------------------------------------------|
F#|-----------------------------------------------------------------|
B |---3--3--3--3--3--3--3--6--6--1--1--1--1--1--1--0----------------|
                                                    [Repeat]

[Heavier]
(Gtr. 1 and 2)
C#|-----------------------------------------------------------------|
G#|-----------------------------------------------------------------|
E |-----------------------------------------------------------------|
B |-----------------------------------------------------------------|
F#|-----------------------------------------------------------------|
B |---0--0--0--0--0--0--0--0--0--0--0--0--0--1--3--3----------------|

C#|-----------------------------------------------------------------|
G#|-----------------------------------------------------------------|
E |-----------------------------------------------------------------|
B |-----------------------------------------------------------------|
F#|-----------------------------------------------------------------|
B |---3--3--3--3--3--3--3--6--6--1---12/----------------------------|

(Gtr. 1 and 2- *Compositive Arrangement **With Octave ***set for 1 octave above.)
C#|-----------------------------------------------------------------|
G#|-----------------------------------------------------------------|
E |-----------------------------------------------------------------|
B |-----------------------------------------------------------------|
F#|-----------------------------------------------------------------|
B |---0--0--0--0--0--0--0--0--0--0--0--0--0--0--0--3----------------|

C#|-----------------------------------------------------------------|
G#|-----------------------------------------------------------------|
E |-----------------------------------------------------------------|
B |-----------------------------------------------------------------|
F#|-----------------------------------------------------------------|
B |---3--3--3--3--3--3--3--6\1--1--1--1--1--3--1--0-----------------|

C#|-----------------------------------------------------------------|
G#|-----------------------------------------------------------------|
E |-----------------------------------------------------------------|
B |-----------------------------------------------------------------|
F#|-----------------------------------------------------------------|
B |---0--0--0--0--0--0--0--0--0--0--0--0--0--0--0--3----------------|

C#|-------------------------------------[------]--------------------|
G#|-------------------------------------[------]--------------------|
E |-------------------------------------[------]--------------------|
B |-------------------------------------[------]--------------------|
F#|-------------------------------------[------]--------------------|
B |---3--3--3--3--3--3--6\1--1--1--1--3-[-/11\-]--------------------|
                                      [Gtr. 1 slide]

C#|-------------------------------------[------]--------------------|
G#|-------------------------------------[------]--------------------|
E |-------------------------------------[------]--------------------|
B |-------------------------------------[------]--------------------|
F#|-------------------------------------[------]--------------------|
B |-------------------------------------[-/15\-]--------------------|

[Interlude]
(Gtr. 1 and 2)
C#|-----------------------------------------------------------------|
G#|-----------------------------------------------------------------|
E |-----------------------------------------------------------------|
B |-----------------------------------------------------------------|
F#|---0--0--0----0--0----0--0--0----0--1--0--3--3*------------------|
B |---0--0--0----0--0----0--0--0----0--1--0--3----------------------|

C#|-----------------------------------------------------------------|
G#|-----------------------------------------------------------------|
E |-----------------------------------------------------------------|
B |-----------------------------------------------------------------|
F#|---0--0--0----0--0----0--0--0----0--1--0--6\---------------------|
B |---0--0--0----0--0----0--0--0----0--1--0--6\--1*-----------------|

[Verse]
(Gtr. 2)
C#|-----------------------------------------------------------------|
G#|-----------------------------------------------------------------|
E |-----------------------------------------------------------------|
B |-----------------------------------------------------------------|
F#|-----------------------------------------------------------------|
B |---7~--10~--5~--7~--3~--5~--1~--0~-------------------------------|
 [Tremolo picking]

C#|-----------------------------------------------------------------|
G#|-----------------------------------------------------------------|
E |-----------------------------------------------------------------|
B |-----------------------------------------------------------------|
F#|---12~--7~--8~-----------8~--10~--8~--7~-------------------------|
B |----------------9~--10~------------------------------------------|
 [Tremolo picking]

[Pre-Chorus]
C#|-----------------------------------------------------------------|
G#|-----------------------------------------------------------------|
E |-----------------------------------------------------------------|
B |-----------------------------------------------------------------|
F#|---3--3--3-3--3---3--3--3-3--3---3--3--3-3--3---3--3--2--2--1--1-|
B |---3--3--3-3--3---3--3--3-3--3---3--3--3-3--3---3--3--2--2--1--1-|

[Chorus]
(Gtr. 1) (Dist.)
C#|-----------------------------------------------------------------|
G#|-----------------------------------------------------------------|
E |-----------------------------------------------------------------|
B |-----------------------------------------------------------------|
F#|-----------------------------------------------------------------|
B |---0--0--0--0--0--0--0--0--0--0--0--0--0--1/2/3--3---------------|

C#|-----------------------------------------------------------------|
G#|-----------------------------------------------------------------|
E |-----------------------------------------------------------------|
B |-----------------------------------------------------------------|
F#|-----------------------------------------------------------------|
B |---3--3--3--3--3--3--3--6--6--1--1--1--1--3--1--0----------------|
                                                    [Repeat]

[Verse]
(Gtr. 2)
C#|-----------------------------------------------------------------|
G#|-----------------------------------------------------------------|
E |-----------------------------------------------------------------|
B |-----------------------------------------------------------------|
F#|-----------------------------------------------------------------|
B |---7~--10~--5~--7~--3~--5~--1~--0~-------------------------------|
 [Tremolo picking]

C#|-----------------------------------------------------------------|
G#|-----------------------------------------------------------------|
E |-----------------------------------------------------------------|
B |-----------------------------------------------------------------|
F#|---12~--7~--8~-----------8~--10~--8~--7~-------------------------|
B |----------------9~--10~------------------------------------------|
 [Tremolo picking]

[Pre-Chorus]
C#|-----------------------------------------------------------------|
G#|-----------------------------------------------------------------|
E |-----------------------------------------------------------------|
B |-----------------------------------------------------------------|
F#|---3--3--3-3--3---3--3--3-3--3---3--3--3-3--3---3--3--2--2--1--1-|
B |---3--3--3-3--3---3--3--3-3--3---3--3--3-3--3---3--3--2--2--1--1-|

[Chorus]
(Gtr. 1) (Dist.)
C#|-----------------------------------------------------------------|
G#|-----------------------------------------------------------------|
E |-----------------------------------------------------------------|
B |-----------------------------------------------------------------|
F#|-----------------------------------------------------------------|
B |---0--0--0--0--0--0--0--0--0--0--0--0--0--1/2/3--3---------------|

C#|-----------------------------------------------------------------|
G#|-----------------------------------------------------------------|
E |-----------------------------------------------------------------|
B |-----------------------------------------------------------------|
F#|-----------------------------------------------------------------|
B |---3--3--3--3--3--3--3--6--6--1--1--1--1--3--1--0----------------|
                                                    [Repeat]

[Played over Chorus riffs on extra guitars:]
The first one.
(Gtr. 3) (Dist.)
C#|-----------------------------------------------------------------|
G#|-----------------------------------------------------------------|
E |---14--14\7--7/10--10/12--12/14--14/15--14-----------------------|
B |----x---x-x--x--x---x--x---x--x---x--x---x-----------------------|
F#|---12--12\5--5/-8---8/10--10/12--12/13--12-----------------------|
B |-----------------------------------------------------------------|

   The second one.
(Gtr. 4) (Dist.)
C#|--------------------------------------------------------------------|
G#|--------------------------------------------------------------------|
E |--------------------------------------------------------------------|
B |------------10-------10----------10-------10----------10-------10---|
F#|---13-12-10----13-12----13-12-10----13-12----13-12-10----13-12------|
B |--------------------------------------------------------------------|

[Interlude]
(Gtr. 1 and 2)
C#|-----------------------------------------------------------------|
G#|-----------------------------------------------------------------|
E |-----------------------------------------------------------------|
B |-----------------------------------------------------------------|
F#|---0--0--0----0--0----0--0--0----0--1--0--3--3*------------------|
B |---0--0--0----0--0----0--0--0----0--1--0--3----------------------|

C#|-----------------------------------------------------------------|
G#|-----------------------------------------------------------------|
E |-----------------------------------------------------------------|
B |-----------------------------------------------------------------|
F#|---0--0--0----0--0----0--0--0----0--1--0--6\---------------------|
B |---0--0--0----0--0----0--0--0----0--1--0--6\--1*-----------------|

(END HALF-TIME FEEL)
(Gtr. 1 and 2)
C#|----------------------------------------------------------------------|
G#|----------------------------------------------------------------------|
E |----------------------------------------------------------------------|
B |----------------------------------------------------------------------|
F#|---0--1--0-------------------------1--1--1--1-1-11-1---------------3*-|
B |---0--1--0---6--6--6--3--3--3--6---1--1--1--1-1-11-1--1--3--1--6\1----|

[Pre-Chorus 2]
C#|-----------------------------------------------------------------|
G#|-----------------------------------------------------------------|
E |-----------------------------------------------------------------|
B |-----------------------------------------------------------------|
F#|---------------------------------------------0--0----------------|
B |---0--0--0--3--3--3--1--1--1--5--5--5--3--3----------------------|

                                                          [Cont.]
C#|-----------------------------------------------------------------|
G#|-----------------------------------------------------------------|
E |-----------------------------------------------------------------|
B |-----------------------------------------------------------------|
F#|---5--5--5--0--0--0--3--3--3--2--2--2--------0-------------------|
B |---------------------------------------5--5----------------------|

[Chorus]
(Gtr. 1) (Dist.)
C#|-----------------------------------------------------------------|
G#|-----------------------------------------------------------------|
E |-----------------------------------------------------------------|
B |-----------------------------------------------------------------|
F#|-----------------------------------------------------------------|
B |---0--0--0--0--0--0--0--0--0--0--0--0--0--1/2/3--3---------------|

C#|-----------------------------------------------------------------|
G#|-----------------------------------------------------------------|
E |-----------------------------------------------------------------|
B |-----------------------------------------------------------------|
F#|-----------------------------------------------------------------|
B |---3--3--3--3--3--3--3--6--6--1--1--1--1--3--1--0----------------|
                                                    [Repeat]

[Interlude]
(Gtr. 1 and 2)
C#|-----------------------------------------------------------------|
G#|-----------------------------------------------------------------|
E |-----------------------------------------------------------------|
B |-----------------------------------------------------------------|
F#|---0--0--0----0--0----0--0--0----0--1--0--3--3*------------------|
B |---0--0--0----0--0----0--0--0----0--1--0--3----------------------|

C#|-----------------------------------------------------------------|
G#|-----------------------------------------------------------------|
E |-----------------------------------------------------------------|
B |-----------------------------------------------------------------|
F#|---0--0--0----0--0----0--0--0----0--1--0--6\---------------------|
B |---0--0--0----0--0----0--0--0----0--1--0--6\--1*-----------------|


************************************

| \  Slide down
| /  Slide up
| ~  Vibrato
| *  Palm muted

************************************
Suggest correction
comments
print report bad tab
38 comments total. Showing first comments.
+8 reply
TatarSalad2 130 May 04, 2009 12:13 PM

I haven't gotten a chance to play it yet, but it looks pretty good. I think more people should look at this so 5 stars.

+5 reply
Pessimisticall 172 May 04, 2009 01:18 PM

5 stars, there were a bunch of people that didnt want this tab to make it on the site but its right

+3 reply
rongold360 150 May 04, 2009 02:01 PM

Thank you guys.

guest
You may want to rate the tab now too:
select rating
Wanna post a correction for this tab? Suggest correction