Oops, an error
Loading. Please wait.

Duality Tab

5,237 views 6 this week
2 commentsread comments
1 2 3 4 5
2 more votes to show rating
add to favorites
launch autoscroll
font size
0
reset
how to read this tab
guitar tuner
Autoscroll
slow
fast
+/-
esc
set tempo
stop
Help us to improve Ultimate-Guitar.com Take our survey!
×
Slipknot: Duality
Tuning: Dropped B
Tempo: 146
*= pinch harmonic

Intro
-------------------------------------------------------------------|
-------------------------------------------------------------------|
-------------------------------------------------------------------|
-------------------------------------------------------------------|
-------------------------------------------------------------------|
--0--0--0--0--0--0--0--0--0--0--0--0--0--0--0--3-------------------|

-----------------------------------------------------------|
-----------------------------------------------------------|
-----------------------------------------------------------|
-----------------------------------------------------------|
-----------------------------------------------------------|     Play this 4
--3--3--3--3--3--3--3--6--(6)\--1--1--1--1--1--1-----------|       Times


-------------------------------------------------------------------|
-------------------------------------------------------------------|
-------------------------------------------------------------------|
-0-----0--0-----0--0------0----0--0--------0--------3--------1*----|
-0-----0--0-----0--0------0----0--0--------0--1--0--3--------------|
-0-----0--0-----0--0------0----0--0--------0--1--0--3--------------|
pm                                            .  .

-------------------------------------------------------------------|
-------------------------------------------------------------------|
-------------------------------------------------------------------|
-0-----0--0-----0--0------0----0--0--------0--------3--------------|  Play
-0-----0--0-----0--0------0----0--0--------0--1--0--3--------3*----|  this
-0-----0--0-----0--0------0----0--0--------0--1--0--3--------------|  twice.
pm                                            .  .


Verse 1 (palm muted)
---------------------------------------------------------------------------|
---------------------------------------------------------------------------|
---------------------------------------------------------------------------|
---------------------------------------------------------------------------|
---------------------------------------------------------------------------|
-7-7-7-7-7-7--10-10-10--5-5-5-5-5--7-7--3-3-3--5-5-5--1-1-1--0-0-0-0-0-0-0-|

Play this 9 times.

Pre-Chorus (Palm muted)
-----------------------------------------------------------------|
-----------------------------------------------------------------|
-----------------------------------------------------------------|
-3---3---3-3---3-3---3---3-3---3-3---3---3-3---3-2--2--1--1------|
-3---3---3-3---3-3---3---3-3---3-3---3---3-3---3-2--2--1--1------|
-3---3---3-3---3-3---3---3-3---3-3---3---3-3---3-2--2--1--1------|

Chorus
-------------------------------------------------------------------|
-------------------------------------------------------------------|
-------------------------------------------------------------------|
-------------------------------------------------------------------|
-------------------------------------------------------------------|
--0--0--0--0--0--0--0--0--0--0--0--0--0--0--0--3-------------------|

-----------------------------------------------------------|
-----------------------------------------------------------|
-----------------------------------------------------------|   Play This
-----------------------------------------------------------|     Twice.
-----------------------------------------------------------|
--3--3--3--3--3--3--3--6--(6)\--1--1--1--1--1--1--0--------|


Verse 2 (Palm muted)
---------------------------------------------------------------------------|
---------------------------------------------------------------------------|
---------------------------------------------------------------------------|
---------------------------------------------------------------------------|
---------------------------------------------------------------------------|
-7-7-7-7-7-7--10-10-10--5-5-5-5-5--7-7--3-3-3--5-5-5--1-1-1--0-0-0-0-0-0-0-|

Play this 4 times.


Pre-Chorus (Palm muted)
-----------------------------------------------------------------|
-----------------------------------------------------------------|
-----------------------------------------------------------------|
-3---3---3-3---3-3---3---3-3---3-3---3---3-3---3-2--2--1--1------|
-3---3---3-3---3-3---3---3-3---3-3---3---3-3---3-2--2--1--1------|
-3---3---3-3---3-3---3---3-3---3-3---3---3-3---3-2--2--1--1------|

-----------------------------------------------------------------|
-----------------------------------------------------------------|
-----------------------------------------------------------------|
-3---3---3-3---3-3---3---3-3---3-3---3---3-3---3-2--2--1--1------|
-3---3---3-3---3-3---3---3-3---3-3---3---3-3---3-2--2--1--1------|
-3---3---3-3---3-3---3---3-3---3-3---3---3-3---3-2--2--1--1------|

Chorus
-------------------------------------------------------------------|
-------------------------------------------------------------------|
-------------------------------------------------------------------|
-------------------------------------------------------------------|
-------------------------------------------------------------------|
--0--0--0--0--0--0--0--0--0--0--0--0--0--0--0--3-------------------|

-----------------------------------------------------------|
-----------------------------------------------------------|
-----------------------------------------------------------|   Play this
-----------------------------------------------------------|     twice.
-----------------------------------------------------------|
--3--3--3--3--3--3--3--6--(6)\--1--1--1--1--1--1--0--------|


--------------------------------------------------------------|
--------------------------------------------------------------|
-14----14--7----7--10----10--12----12--14----14--15----14-----|   Play this
-X-----X---X----X--X-----X---X-----X---X-----X---X-----X------|     twice.
-12----12--5----5--8-----8---10----10--12----12--13----12-----|
--------------------------------------------------------------|

Bridge
-------------------------------------------------------------------|
-------------------------------------------------------------------|
-------------------------------------------------------------------|
-0-----0--0-----0--0------0----0--0--------0--------3--------1*----|
-0-----0--0-----0--0------0----0--0--------0--1--0--3--------------|
-0-----0--0-----0--0------0----0--0--------0--1--0--3--------------|
pm                                            .  .

-------------------------------------------------------------------|
-------------------------------------------------------------------|
-------------------------------------------------------------------|
-0-----0--0-----0--0------0----0--0--------0--------3--------------|  Play
-0-----0--0-----0--0------0----0--0--------0--1--0--3--------3*----|  this
-0-----0--0-----0--0------0----0--0--------0--1--0--3--------------|  five
pm                                            .  .                   times.

Pre-Chorus (Palm muted)
-----------------------------------------------------------------|
-----------------------------------------------------------------|
-----------------------------------------------------------------|
-3---3---3-3---3-3---3---3-3---3-3---3---3-3---3-2--2--1--1------|
-3---3---3-3---3-3---3---3-3---3-3---3---3-3---3-2--2--1--1------|
-3---3---3-3---3-3---3---3-3---3-3---3---3-3---3-2--2--1--1------|


----------------------------------------------------------------------------|
----------------------------------------------------------------------------|
----------------------------------------------------------------------------|
----------------------------------------------------------------------------|
----------------------------------------------------------------------------|
-0-0-0--3-3-3--1-1-1--5-5-5--3-3--7-7--12-12-12--7-7-7-10-10-10-9-9-9-5-5-7-|

Chorus
-------------------------------------------------------------------|
-------------------------------------------------------------------|
-------------------------------------------------------------------|
-------------------------------------------------------------------|
-------------------------------------------------------------------|
--0--0--0--0--0--0--0--0--0--0--0--0--0--0--0--3-------------------|

-----------------------------------------------------------|
-----------------------------------------------------------|
-----------------------------------------------------------|   Play this
-----------------------------------------------------------|     twice.
-----------------------------------------------------------|
--3--3--3--3--3--3--3--6--(6)\--1--1--1--1--1--1--0--------|


--------------------------------------------------------------|
--------------------------------------------------------------|
-14----14--7----7--10----10--12----12--14----14--15----14-----|   Play this
-X-----X---X----X--X-----X---X-----X---X-----X---X-----X------|     twice.
-12----12--5----5--8-----8---10----10--12----12--13----12-----|
--------------------------------------------------------------|


Outro
-------------------------------------------------------------------|
-------------------------------------------------------------------|
-------------------------------------------------------------------|
-0-----0--0-----0-0-0-0---0----0--0--------0--------3--------1*----|
-0-----0--0-----0-0-0-0---0----0--0--------0--1--0--3--------------|
-0-----0--0-----0-0-0-0---0----0--0--------0--1--0--3--------------|
pm                                            .  .

                                                          1st ending

-------------------------------------------------------------------|
-------------------------------------------------------------------|
-------------------------------------------------------------------|  Repeat
-0-----0--0-----0-0-0-0-----0----0--0--------0--------3------------|   and
-0-----0--0-----0-0-0-0-----0----0--0--------0--1--0--3--------3*--| take 2nd
-0-----0--0-----0-0-0-0-----0----0--0--------0--1--0--3------------| ending
pm                                            .  .

2nd ending (Palm muted)
-------------------------------------------------------------------|
-------------------------------------------------------------------|
-------------------------------------------------------------------|
-------------------------------------------------------------------|
-6-6-6----3-3-3----1---1---1---12----------------------------------|
-6-6-6----3-3-3----1---1---1///12----------------------------------|

(Palm muted)
-------------------------------------------------------------------|
-------------------------------------------------------------------|
-------------------------------------------------------------------|
-0-----0--0-----0-0-0-0-----0----0--0--------0--------3---------1*-|
-0-----0--0-----0-0-0-0-----0----0--0--------0--1--0--3------------|
-0-----0--0-----0-0-0-0-----0----0--0--------0--1--0--3------------|


-------------------------------------------------------------------|
-------------------------------------------------------------------|
-------------------------------------------------------------------|
-0-----0--0-----0-0-0-0-----0----0--0--------0--------3------------|
-0-----0--0-----0-0-0-0-----0----0--0--------0--1--0--3--------3*--|
-0-----0--0-----0-0-0-0-----0----0--0--------0--1--0--3------------|


(Open)
-------------------------------------------------------------------|
-------------------------------------------------------------------|
-------------------------------------------------------------------|
-0-----0--0-----0-0-0-0-----0----0--0--------0--------3---------1*-|
-0-----0--0-----0-0-0-0-----0----0--0--------0--1--0--3------------|
-0-----0--0-----0-0-0-0-----0----0--0--------0--1--0--3------------|


-------------------------------------------------------------------|
-------------------------------------------------------------------|
-------------------------------------------------------------------|
-0-----0--0-----0-0-0-0-----0----0--0--------0--------3------------|
-0-----0--0-----0-0-0-0-----0----0--0--------0--1--0--3--------3*--|
-0-----0--0-----0-0-0-0-----0----0--0--------0--1--0--3------------|
Suggest correction
Give kudos to tab author, rate the tab!
1 2 3 4 5
comments
print report bad tab
2 comments total.
0 reply
royturner23 1,507 Jun 18, 2009 08:37 PM

who the **** approve your pathetic tab!

0 reply
rongold360 150 Jul 03, 2009 12:41 PM

yeah, not to great... srry dude.

guest
You may want to rate the tab now too:
select rating
Wanna post a correction for this tab? Suggest correction