Oops, an error
Loading. Please wait.

Eeyore Tab

version 4
version 4

Whole song

288 views 1 this week
1 commentread comment
1 2 3 4 5
accurate
x 4
add to favorites
launch autoscroll
font size
0
reset
how to read this tab
guitar tuner
Autoscroll
slow
fast
+/-
esc
set tempo
stop
Help us to improve Ultimate-Guitar.com Take our survey!
×
Contributor
tuning: Drop B

in the beginning just place your fingers on the strings lightly and strum the last three 
you actually hit the note.


C#--xxxxxxx13~--|
G#--xxxxxxx13~--|    x16
E --xxxxxxx10~--|
B ---------10~--|
F#--------------|
B --------------|

C#-------------------------------------|
G#-------------------------------------|    x4
E -------------------------------------|
B -7-7-7-7-7-7-7-7-3-3-3-3-2-2-2-2-----|
F#-7-7-7-7-7-7-7-7-3-3-3-3-2-2-2-2-----|
B -7-7-7-7-7-7-7-7-3-3-3-3-2-2-2-2-----|

C#--------------------------------|
G#--------------------------------|     x2
E --------------------------------|
B --------------------------------|
F#--------------------------------|
B -7777777~--------3~------2~-----|

C#--------------------------------|
G#--------------------------------| (not the exact number of times, I don't
E --------------------------------|  think)
B -7777777777777777333333332222222     x4
F#-7777777777777777333333332222222
B -7777777777777777333333332222222

C#---------------------------------------------------------------|
G#--*palm mute*--------------------------------------------------|
E ---------------------------------------------------------------|  x4
B ----------------------------------------------------000---444--|
F#-3p0-*-*-*-*-*-*-3p0-*-3p0-*-3h5p3p0-*-*-*-*-*-*-------333-----|
B -3p0-0-0-0-0-0-0-3p0-0-3p0-0-3h5p3p0-0-0-0-0-0-0-000-----------|

C#--------------|
G#--------------|   then repeat these 2 steps only twice
E --------------|
B ----000---444-|
F#-------333----|
B -000----------|

C#----------------------------------------|
G#----------------------------------------|
E ----------------------------------------|    x4
B -3p0~~~~3p0~3p0~3h5p3p0~~~~---000---444-|
F#-3p0~~~~3p0~3p0~3h5p3p0~~~~------333----|
B -3p0~~~~3p0~3p0~3h5p3p0~~~~000----------|

C#---------------------------------|
G#---------------------------------|  x4
E ---------------------------------|
B -7-7-7-7-7-7-7-7-3-3-3-3-2-2-2-2-|
F#-7-7-7-7-7-7-7-7-3-3-3-3-2-2-2-2-|
B -7-7-7-7-7-7-7-7-3-3-3-3-2-2-2-2-|

C#--xxxxxxx13~--------------|
G#--xxxxxxx13~---x8---------|
E --xxxxxxx10~--------------|
B ---------10~-----then--0--|E
F#-----------------------0--|N
B -----------------------0--|D
comments
print report bad tab
1 comment total.
0 reply
korn_dawg 517 wrote on December 10 2006, 06:35 pm

the intro/outro piece is completely wrong.. so pretty much 1/3 of the tab is wrong. the note played after the muted notes has a D base, and I'm pretty sure it's just a normal D5 but you have some form of an A chord..

I want to post or [tab]
guest
You may want to rate the tab now too:
select rating
Please do not post tabs as comments. Select "correction" instead!