Oops, an error
Loading. Please wait.

Eeyore Tab

version 6
version 6

Whole song

6,482 views 1 this week
10 commentsread comments
1 2 3 4 5
excellent!
x 14
add to favorites
launch autoscroll
font size
0
reset
how to read this tab
guitar tuner
Autoscroll
slow
fast
+/-
esc
set tempo
stop
Help us to improve Ultimate-Guitar.com Take our survey!
×
Author
ALBUM:SLIPKNOT
SONG:EEYORE
TUNING:DROP B (BF#BEG#C#)

" = TREM PICK
* = PALM MUTE
/ = SLIDE
(5) = HARMONICS
p = PULL OFF
 THIS IS THE RIGHT WAY TO PLAY THIS SONG, EVERY TAB IVE SEEN HAS HAD THE
 SH*T TAB BOOK WAY AND ITS NOT RIGHT,IVE SEEN SLIPKNOT PLAY IT LIVE AND
 THIS IS HOW MICK PLAYS IT , THIS TABS 100%.


   INTRO     GTR 1 (MICK)
C#--------------------------------|
G#---(1515151515151515)-----------|
E----(1515151515151515)-----------|
B----(1515151515151515)-----------|
F#------------------------15------|
B-------------------------15------|


   INTRO GTR 2 (JIM)
C#--------------------------|
G#--------------------------|
E---------------------------|
B---------------------------|
F#--------------------------|
B----000011110--000011110---|
     *********  *********

    VERSE GTRS 1&2
C#-------------------------------------|
G#-------------------------------------|
E--------------------------------------|
B--------------------------------------|  X4
F#---7-7-7-7-7-7-7-7-3-3-3-3-2-2-2-2---|
B----7-7-7-7-7-7-7-7-3-3-3-3-2-2-2-2---|


    GTR 1
C#---------------------------------------------------------------------|
G#---------------------------------------------------------------------|
E----------------------------------------------------------------------|
B----------------------------------------------------------------------|
F#---------------------------------------------------------------------|
B----7-7-7-7-7-7-7-7-7-7-7-7-7-7-7-7-3-3-3-3-3-3-3-3-2-2-2-2-2-2-2-2---|


    GTR 2
C#---------------------------------------------------------------------|
G#---------------------------------------------------------------------|
E----------------------------------------------------------------------|
B----------------------------------------------------------------------|
F#---7-7-7-7-7-7-7-7-7-7-7-7-7-7-7-7-3-3-3-3-3-3-3-3-2-2-2-2-2-2-2-2---|
B----------------------------------------------------------------------|


   "GOOD RIDDANCE! THOUGH IM SAD TO SAY I DIDNT GET TO KILL YOU!"
C#-------------------------------------------------------------|
G#-------------------------------------------------------------|
E--------------------------------------------------------------|
B-------------------------------------------------------4"-----|
F#---0---------3p0-0-3p0-0-3-5/6----------------5"--3"---------|
B----0-000000--3p0-0-3p0-0-3-5/6-0000000----3"-----------------|
       ******                    *******

   "RHETORIC! BETTER LOOK BOTH WAYS I GOTTA GET AN ARM THROUGH!"
C#-------------------------------------------------------------|
G#-------------------------------------------------------------|
E--------------------------------------------------------------|
B-------------------------------------------------------4"-----|
F#---0---------3p0-0-3p0-0-3-5/6----------------5"--3"---------|
B----0-000000--3p0-0-3p0-0-3-5/6-0000000----3"-----------------|
       ******                    *******

   "STAIN!"
C#------------------------------|
G#------------------------------|
E-------------------------------|
B-------------------------4"----|
F#-----------------5"--3"-------|
B---------------3"--------------|


   "WHAT THE F*CK IS UP,GET THE F*CK AWAY,RUN IF YOU WANT TO!"
C#-------------------------------------------------------------|
G#-------------------------------------------------------------|
E--------------------------------------------------------------|
B-------------------------------------------------------4"-----|
F#---0---------3p0-0-3p0-0-3-5/6----------------5"--3"---------|
B----0-000000--3p0-0-3p0-0-3-5/6-0000000----3"-----------------|
       ******                    *******

   "INNOCENT!YOUR A GUILTY CONSCIENCE,A LAUGHING BREAKTHROUGH,STAIN!
C#-------------------------------------------------------------|
G#-------------------------------------------------------------|
E--------------------------------------------------------------|
B-------------------------------------------------------4"-----|
F#---0---------3p0-0-3p0-0-3-5/6----------------5"--3"---------|
B----0-000000--3p0-0-3p0-0-3-5/6-0000000----3"-----------------|
       ******                    *******

C#----------------------------------------|
G#------------------------------/6--------|
E-------------------------------/4--------|
B---------------------------/7------------| X4
F#---3p0--3p0-3p0-3-5/6-0---/5------------|
B----3p0--3p0-3p0-3-5/6-0-----------------|


PLAY VERSE

OUTRO - GTR 1 , 2 PLAY INTRO RIFFS


   THATS IT AND ITS THE RIGHT WAY,PLZ RATE THIS TO LET ME KNOW THAT IT
   SOUNDS BETTER. ANY COMMENTS EMAIL GUITAR_HERO_84@HOTMAIL.COM.ENJOY


   TABBED BY:TAB_MAN84
Suggest correction
What's this?
You can suggest a correction to this tab. Community and Mods will review your correction and vote to approve or reject it.
comments
print report bad tab
10 comments total. Showing first comments.
0 reply
MusicDragon666 90 wrote on April 29 2006, 08:21 pm

(SIC) FUCKING TAB! Definetly the best tab of all. Great ****ing intro. Keep tabin my friend. And remember..Stay (SIC)

0 reply
SkateEmerica987 1,534 wrote on July 5 2006, 01:03 am

great tab. the hardest part for me is tuning the guitar lol because i dont have a tuner but once i got that its easy and fun, great tab...stay (sic)

0 reply
Chaz-6(sic)6 1,942 wrote on July 5 2006, 04:28 pm

Fuck this tab is perfect!!!
Great tab=5 stars.

guest
You may want to rate the tab now too:
select rating
Please do not post tabs as comments. Select "correction" instead!