Oops, an error
Loading. Please wait.

Eeyore Tab

version 6
version 6

Whole song

40 views 1 this week
no commentswrite comment
1 2 3 4 5
3 more votes to show rating
add to favorites
launch autoscroll
font size
0
reset
how to read this tab
guitar tuner
Autoscroll
slow
fast
+/-
esc
set tempo
stop
Author
Difficulty
Tuning
intermediate
B F# B E G# C#
About this tab version
Added Guitar 2's Intro in too, because there IS one, and made changes to Guitar 1's Intro too... Was this info helpful? Yes No
Song: Eeyore
Artist: Slipknot
Tuning: Drop B

[Intro 1/Outro] (Guitar 1 ONLY)

db|--------------|
Ab|-------------6|
 E|-4-4-4-4-4-4-5| x8
 B|-0-0-0-0-0-0-3|
Gb|--------------|
 B|--------------|


[Intro 2/Outro] (Guitar 1)

db|--------------|
Ab|-------------6|
 E|-------------5| x8
 B|-0-0-0-0-0-0-3|
Gb|--------------|
 B|--------------|


[Intro 2/Outro] (Guitar 2)

db|--------------|
Ab|--------------|
 E|--------------| x8
 B|-------------3|
Gb|-------------3|
 B|-0-0-0-0-0-0-3|


[Verse] (Verse 2 does this 4 times)

db|----------------------------------------------------------------|
Ab|----------------------------------------------------------------|
 E|----------------------------------------------------------------| x10
 B|----------------------------------------------------------------|
Gb|----------------------------------------------------------------|
 B|-7-7-7-7-7-7-7-7-7-7-7-7-7-7-7-7-3-3-3-3-3-3-3-3-2-2-2-2-2-2-2-2|


[Bridge] (Guitar 1 starts first)

db|---------------------------------------------------------------------------------|
Ab|---------------------------------------------------------------------------------|
 E|---------------------------------------------------------------------------------| x4
 B|--------------------------------------------------------------------------5-5-5-5|
Gb|---------------------------------------------------------5-5-5-5-3-3-3-3---------|
 B|-3p0-0-0-0-0-0-0-3p0-0-3p0-0-3h5-6p0-0-0-0-0-0-0-3-3-3-3-------------------------|
        . . . . . .     .     .

db|--------------------------------|
Ab|--------------------------------|
 E|--------------------------------|
 B|-------------------------5-5-5-5|
Gb|---------5-5-5-5-3-3-3-3--------|
 B|-3-3-3-3------------------------|

db|---------------------------------------------------------------------------------|
Ab|---------------------------------------------------------------------------------|
 E|---------------------------------------------------------------------------------| x2
 B|--------------------------------------------------------------------------5-5-5-5|
Gb|---------------------------------------------------------5-5-5-5-3-3-3-3---------|
 B|-3p0-0-0-0-0-0-0-3p0-0-3p0-0-3h5-6p0-0-0-0-0-0-0-3-3-3-3-------------------------|
        . . . . . .     .     .         . . . . . .

db|-------------------------------------------------------------------------------|
Ab|-------------------------------------------------------------------------------|
 E|-------------------------------------------------------------------------------| x4
 B|-3p0-------------3p0---3p0-3h5-6p0--------------------------------------5-5-5-5|
Gb|-3p0-------------3p0---3p0-3h5-6p0---------------------5-5-5-5-3-3-3-3---------|
 B|-3p0-------------3p0---3p0-3h5-6p0-------------3-3-3-3-------------------------|



************************************

| h  Hammer-on
| p  Pull-off
| b  Bend
| .  Palm Mute

************************************
Suggest correction
Give kudos to tab author, rate the tab!
1 2 3 4 5
comments
print report bad tab
guest
You may want to rate the tab now too:
select rating
Wanna post a correction for this tab? Suggest correction