Oops, an error
Loading. Please wait.

Everything Ends tab

version 3
version 3

Whole song

Interactive

310 views 3 this week
no commentswrite comment
1 2 3 4 5
2 more votes to show rating
add to favorites
×
Save as Personal and add changes to this tab that will be seen only by you. Learn more ›
×
You can save this tab as Personal to edit and correct it or add notes. All changes will be seen only by you. Learn more »
launch autoscroll
font size
0
reset
how to read this tab
guitar tuner
edit
Autoscroll
slow
fast
+/-
esc
set tempo
stop
SONG: EVERYTHING ENDS
BAND: SLIPKNOT
ALBUM: IOWA
YEAR: 2000
GENRE: DEATH METAL
TUNNING: DROP A (A E A D F# B)

LEGEND OF SIMBOLS:
/ SLIDE UP
\ SLIDE DOWN
~ VIBRATO
__ LET RING
h  HAMMER ON
.  STACCATO
X  DEATH NOTE
*  PINCH HARMONIC

||o-- REPEAT START
--o|| REPEAT ENDING
PM-|  PALM MUTE

TABBED ONLY FOR 1 GUITAR
THE "R" AURICULAR (#4: JAMES ROOT)

*****************************************
* LISTEN CAREFULLY ANY PART OF THE SONG *
*****************************************

I CAN´T FOUND ANY LIVE VERSION FOR THE TABS OF #7: MICK THOMSON
HE DOES SOME FUCKIN´ HARDEST SOLOS BEHIND THE #4's GUITAR
WHEN I COULD GET THE ANOTHER GUITAR TABS, I'LL TRY TO SUBMIT IT
LIKE PART 2 

FAST ROCK....


INTRO:
||--------------------------|-----------------|------------------|------------------
||o-------------------------|-----------------|------------------|------------------
||--------------------------|-----------------|------------------|------------------
||--------------------------|-----------------|------------------|------------------
||o-------------------------|-----------------|------------------|------------------
||-/10-10-10-10-10-10-10-10-|-9-9-9-9-9-9-9-9-|-\3-3-3-3-3-3-3-3-|-/6-6-6-6-6-6-6-6-

                                                                   x2 
-----------------------------|-------------------------------------||
-----------------------------|------------------------------------o||
-----------------------------|-------------------------------------||
-----------------------------|-------------------------------------||
-----------------------------|------------------------------------o||
-5-5-5-5-5-5-5-5-5-5-5-5-5-5-|-3\2\1-1-1-1-1-1-1-1-1-1-1-1-1-1-1-1-||


BEFORE THE VERSE:
                                                   x4
||-------------------------------------------------||
||o-----------------------------------------------o||
||-------------------------------------------------||
||-------------------------------------------------||
||o--------------------------------------------1__o||
||-0-1-4-1-0--0-1-4-1-0--0-4~-0-6~--0-1-4-1-0--1__-||

VERSE:
PM------------------------|x4     Without palm mute           x4
||-----------------------------|| ||-----------------------------||
||o---------------------------o|| ||o---------------------------o||
||-----------------------------|| ||-----------------------------||
||-----------------------------|| ||-----------------------------||
||o---------------------------o|| ||o---------------------------o||
||-0h1-1h2-1h2.---1h2.---1h2.--|| ||-0h1-1h2-1h2.---1h2.---1h2.--||

BEFORE THE CHORUS:
|----------------------------------------|
|----------------------------------------|
|----------------------------------------|
|----------------------------------------|
|----------------------------------------|
|-/-0-0-0h6-0h6-0-0-2-2-1--0-0-0h6-0h6-0-|

CHORUS, SIMILAR AT INTRO, EXCEPT FOR G5 AN Eb5 CHORDS:
#1.5
||--------------------------|-----------------|------------------|------------------
||o-------------------------|-----------------|------------------|------------------
||--------------------------|-----------------|------------------|------------------
||--------------------------|-----------------|------------------|------------------
||o-------------------------|-----------------|------------------|------------------
||-/10-10-10-10-10-10-10-10-|-9-9-9-9-9-9-9-9-|-\3-3-3-3-3-3-3-3-|-/6-6-6-6-6-6-6-6-

                          x2 
----------|---------------||
-----8__--|----------4__-o||
-----7__--|----------3__--||
-5__------|------1__------||
-5__------|-3\2--1__-----o||
-5__------|-3\2--1__------||


LITTLE SOLO BREAKDOWN:
PM---|              X4
||------------------||
||o----------------o||
||-----12/13-12/13--||
||-----X-----X------||
||o----10/11-10/11-o||
||-0-0-0-----0------||

BREAK DOWN PART 1:
PM----------|        x3    PM-------| ENDING 
||--------------------||   -------------|
||o------------------o||   -------------|
||--------------------||   -------------|
||------2-------------||   -----2-------|
||o-4-3-0-1-0-X------o||   -4-3-0-1-0-X-|
||--4-3---1-0-X-3*-4*-||   -4-3---1-0-X-|

BREAKDOWN PART 2:
SUCKER!!!              x4
||---------------------||
||o-------------------o||
||---------------------||
||------2--------------||
||o-4-3-0-1-0-3-0-4-0-o||
||--4-3---1-0-3-0-4-0--||

VERSE:
PM----------|        x5          PM----------|        X2
||--------------------||   |-----||--------------------||
||o------------------o||   |-----||o------------------o||
||--------------------||   |-----||--------------------||
||------2-------------||   |-----||------2-------------||
||o-4-3-0-1-0-X------o||   |-----||o-4-3-0-1-0-X------o||
||--4-3---1-0-X-3*-4*-||   |-12\-||--4-3---1-0-X-3*-4*-||

BEFORE FINAL CHORUS
|-----------------------------------------|
|-----------------------------------------|
|-----------------------------------------|
|-----------------------------------------|
|-----------------------------------------|
|-/-0-0-0h6-0h6-0-0-2-2-1--0-0-0h6-0h6-0.-|

OUTRO:                                             X3  ENDING:
||-------------------------------------------------||  --------------------------------|
||o-----------------------------------------------o||  --------------------------------|
||-------------------------------------------------||  --------------------------------|
||-------------------------------------------------||  --------------------------------|
||o-0-1-4-1-0--0-1-4-1-0--0-4-0-6--0-1-4-1-0--1__-o||  -0-1-4-1-0--0-1-4-1-0--0-4-0-6.-|
||--0-1-4-1-0--0-1-4-1-0--0-4-0-6--0-1-4-1-0--1__--||  -0-1-4-1-0--0-1-4-1-0--0-4-0-6.-|

            
            
Suggest correction
Creating personal tab
Creating personal tab
You can edit any tab online and save it as your Personal.

You can edit, replace or remove any tab part or add personal notes – all changes will be seen only by you.

Personal tabs can be accessed anytime from any device, even offline.
Learn more »
Give kudos to tab author, rate the tab!
1 2 3 4 5
comments
print report bad tab
guest
You may want to rate the tab now too:
select rating
Wanna post a correction for this tab? Suggest correction