Oops, an error
Loading. Please wait.

Gehenna Bass Tab

version 1
version 1

Whole song

Interactive

5,538 views 3 this week
1 commentread comment
1 2 3 4 5
worth learning
x 5
add to favorites
launch autoscroll
font size
0
reset
guitar tuner
Autoscroll
slow
fast
+/-
esc
set tempo
stop
Help us to improve Ultimate-Guitar.com Take our survey!
×
Difficulty
novice
SLIPKNOT
GEHENNA
ALL HOPE IS GONE
Tuning: E,A,D,G.
Tab by: cdsteroid23
E-mail: cd_seven8710@hotmail.com
-------------------------------------------------------------------------------

INTRO:                                (00:20)
G|------------------------------------------|
D|------------------------------------------|
A|--7--6-6-6----2--3-3-3--------------------|(x4)
E|------------------------------8-8-7-------|


INTRO TO VERSE:                 (00:40)
G|-----------------||-----------------|
D|-----------------||-----------------|(x2)
A|-----------------||-----------------|
E|--------0--------||--------0--------|

VERSE:                                  (00:58)
G|--------------------------------------------|
D|--------------------------------------------|(x4)
A|--------------------------------------------|
E|--5/10----8--0-0---8—7--0-0----7--5---------|

Repeat INTRO(x2) after that whit VERSE(x4) and continue: 

PRE-CORUS:                                    (02:16)
G|--------------------------------------------------|
D|--------------------------------------------------|
A|--5-—5-—5-—5--5--5--5--5----8--8--8--8------------|(x2)
E|----------------------------------------7-7-7-7-7-|

CORUS:                                            (02:27)
G|-----------------------------------------------------|
D|-----------------------------------------------------|
A|-----------8/5---------------------------------------|
E|--5-5-5-5—-------3-3-3---1-1-1---7-7-7-7-7-7-7-7-----|

G|-------------------------------------------------|
D|-------------------------------------------------|
A|--5--5--5--------8--8--8--7----------------------|(x4)
E|---------------7/--------------------------------|

Repeat the VERSE(x2) and continue:

OUTRO SOLO:                                (03:14)
G|---------------------------------------|
D|---------------------------------------|
A|-----------------------8-8-8-8-8-8-8-8-|
E|--5-5-5-5-5-5-5-5—---------------------|

G|------------------------------------------|
D|------------------------------------------|
A|--------------------------------8-8-8---7-|(x4)
E|--7-7-7-7-7-7----10--10--10---7/----------|

Repeat VERSE(x4) after that  the PRE-CORUS(x2) and continue:

CORUS FINAL:                                (04:32)
G|---------------------------------------|
D|---------------------------------------|
A|-----------------------8-8-8-8-8-8-8-8-|
E|--5-5-5-5-5-5-5-5—---------------------|

G|-------------------------------------------------|
D|-------------------------------------------------|
A|---------------------------------8--8--8---7-----|(x4)
E|--7-7-7-7-7-7----10--10--10---7/-----------------|

                                           (05:11)
G|-----------------—---------------------|
D|---------------------------------------|
A|-----------------------8-8-8-8-8-8-8-8-|
E|--5-5-5-5-5-5-5-5—---------------------|

G|-------------------------------------------|
D|-------------------------------------------|
A|--------------------------------8--8--8—7--|(x4)
E|--7-7-7-7-7-7----10--10--10---7/-----------|

Repeat the VERSUS(x4) and continue: 

FINAL:                                       (06:09)              
G|-------------------------------------------------|
D|-------------------------------------------------|(x8)
A|-------------------------------------------------|
E|--0-5-0-5-0-----0--------------------------------|


This is my reviews of the great song Gehenna but if 
You have a best view please don’t worry for let me know.

And LIVE SLIPKNOT!!!  




Suggest correction
What's this?
You can suggest a correction to this tab. Community and Mods will review your correction and vote to approve or reject it.
comments
print report bad tab
1 comment total.
+3 reply
henrihell 1,724 wrote on November 6 2009, 01:08 pm

This song goes in Drop A!! NOT Standard E... you've got 4 notes right in the whole tab...

guest
You may want to rate the tab now too:
select rating
Please do not post tabs as comments. Select "correction" instead!