Oops, an error
Loading. Please wait.

Gently Bass

version 4
version 4
67 views 9 this week
no commentswrite comment
1 2 3 4 5
3 more votes to show rating
add to favorites
launch autoscroll
font size
0
reset
guitar tuner
Autoscroll
slow
fast
+/-
esc
set tempo
stop
Author
Tuning
B F# B E
00:04 

E |-----------------------------------------------------------| 8x
B |-----------------------------------------------------------|
F#|-----------------------------------------------------------|
B |-3-3-3-3-3-3-3-3-3-3-3-7-7-7-7\2-2-2-2-2-2-2-2-2-2-5-5-5---|


01:06

E |-----------------------------------------------------------| 4x 
B |-----------------------------------------------------------|
F#|-----------------------5-5-5-5h7-7-7-7-7-7-7-7-7-7-7-7-7-7-|
B |-3-3-3-3-3-3-3-3-3-3-3-------------------------------------|


01:35

E |-----------------------------------------------------------| 4x
B |-----------------------------------------------------------|
F#|-----------------------------------------------------------|
B |-3-3-3-3-3-3-3-3-3-3-3-7-7-7-7\2-2-2-2-2-2-2-2/5/8~--------|


02:04

E |-----------------------------------------------------------| 1x
B |-----------------------------------------------------------|
F#|-----------------------------------------------------------|
B |-3----2----3----2--/---------------------------------------|


02:21

E |-----------------------------------------------------------| 1x
B |-----------------------------------------------------------|
F#|-5-5-5h7-------5-5-5h7-------------------------------------|
B |---------2--3----------2-2-3-2--15\------------------------|


02:40

E |-----------------------------------------------------------| 4x
B |-----------------------------------------------------------|
F#|-----------------------------------------------------------|
B |-3-3-3-3-3-3-3-3-3-3-3-7-7-7-7\2-2-2-2-2-2-2-2/5/8~--------|


03:33

E |-----------------------------------------------------------| 1x
B |-----------------------------------------------------------|
F#|-----------------------------------------------------------|
B |-3----3----3----3------------------------------------------|


03:55

E |-----------------------------------------------------------| 8x
B |-----------------------------------------------------------|
F#|-----------------------------------------------------------|
B |-0-1-0-3-0-5-3-1-3-1-0-------------------------------------|


04:14

E |-----------------------------------------------------------| 8x
B |-----------------------------------------------------------|
F#|-----------------------------------------------------------|
B |-0-1-0-3---------------------------------------------------|


04:21

E |-----------------------------------------------------------| until the end
B |-----------------------------------------------------------|
F#|-----------------------------------------------------------|
B |-0-1-0-3-0-5-3-1-3-1-0-------------------------------------|


************************************

| h   Hammer-on
| \   Slide down
| /   Slide up
| ~   Vibrato

************************************
Suggest correction
Give kudos to tab author, rate the tab!
1 2 3 4 5
comments
print report bad tab
guest
You may want to rate the tab now too:
select rating
Wanna post a correction for this tab? Suggest correction