Oops, an error
Loading. Please wait.

Get This Bass Tab

version 2
version 2

Whole song

Interactive

580 views 9 this week
no commentswrite comment
1 2 3 4 5
excellent!
x 3
add to favorites
launch autoscroll
font size
0
reset
guitar tuner
Tab Pro tools
  • play this tab
  • loop segment
  • change instrument
  • show fretboard
  • metronome
Autoscroll
slow
fast
+/-
esc
set tempo
stop
Contributor
Tuning
B F# B E G# C#
Band: Slipknot
Artist: Paul Gray
Album: Slipknot 10th Anniversary Edition
Tuning: Drop B

(B,F#,B,E)

b=Bend

Intro
E-----------------------------------------|
B-----------------------------------------|
F#----------------------------------------|
B-0-1-4-0-1-4-0-1-4-0-1-4-0-1-4-0-1-4-0---|      x8

Chorus
E------------------         E------------------------|
B------------------         B------------------------|
F#------5----------         F#-----------------------|
B-444----50--------    x3   B---444------------------|    x1

Verse
E-----------------------------------------|
B-----------------------------------------|
F#----------------------------------------|
B-0-1-4-0-1-4-0-1-4-0-1-4-0-1-4-0-1-4-0---|      x4

Post-Chorus 1
E--------------------------------------|
B--------------------------------------|
F#-------------------------33332222----|
B-000011114444333344445555-------------|      x1


Verse
E-----------------------------------------|
B-----------------------------------------|
F#----------------------------------------|
B-0-1-4-0-1-4-0-1-4-0-1-4-0-1-4-0-1-4-0---|      x4

Chorus
E------------------        E-----------------------|
B------------------        B-----------------------|
F#------5----------        F#----------------------|
B-444----50--------    x3  B---444-----------------|   x1

Post-Chorus 2
E---------------------------|
B---------------------------|
F#-------444455554444-------|
B---4b----------------------|   x4

Verse
E-----------------------------------------|
B-----------------------------------------|
F#----------------------------------------|
B-0-1-4-0-1-4-0-1-4-0-1-4-0-1-4-0-1-4-0---|      x4


Bridge
E---------------------------------|
B---------------------------------|
A---------------------------------|
E-000/4---000/4---000/4-----------|    x24

Chorus
E-------------------         E----------------------|
B-------------------         B----------------------|
F#------5-----------         F#---------------------|
B-444----50---------   x3    B---444----------------|   x1

Outro
E---------------------------------|
B---------------------------------|
F#----------55--------------------|
B-44444444------550000------------|    x4
comments
We did not receive enough feedback on this tab! Please rate:
print report bad tab
1 2 3 4 5
I want to post or [tab]
guest
You may want to rate the tab now too:
select rating
Please do not post tabs as comments. Select "correction" instead!