Oops, an error
Loading. Please wait.

Get This tab

version 4
version 4

Whole song

Interactive

1,752 views 3 this week
2 commentsread comments
1 2 3 4 5
x 3
add to favorites
×
Save as Personal and add changes to this tab that will be seen only by you. Learn more ›
×
You can save this tab as Personal to edit and correct it or add notes. All changes will be seen only by you. Learn more »
launch autoscroll
font size
0
reset
how to read this tab
guitar tuner
edit
Autoscroll
slow
fast
+/-
esc
set tempo
stop
Author
/Get This/

/Slipknot/

/tabbed by rongold360/

/This is an easy song, in fact, I did the whole thing by ear./

/To the best of my abilities./

Gtr. 1: James Root (Heavy distortion)
Gtr. 2: Mick Thomson (Heavy distortion)

INTRO

Gtr. 2               [Gimme a scream Corey.]
/-----------------------------------------------------/
/-----------------------------------------------------/
/-----------------------------------------------------/
/-----------------------------------------------------/
/-----------------------------------------------0-----/
/---0-1-4-0-1-4-0-1-4-0-1-4-0-1-4-0-1-4-0-1-4-0-0-----/

VERSE

Gtr. 1 and 2
/-----------------------------------------------------/
/-----------------------------------------------------/
/-----------------------------------------------------/
/-----------------------------------------------------/
/---0-1-4-0-1-4-0-1-4-0-1-4-0-1-4-0-1-4-0-1-4-0-------/
/---0-1-4-0-1-4-0-1-4-0-1-4-0-1-4-0-1-4-0-1-4-0-------/

CHORUS

Gtr. 1 and 2
/-----------------------------------------------------/
/-----------------------------------------------------/
/-----------------------------------------------------/
/----------5------------------------------------------/
/---3-4-4--3--2-0-------------------------------------/
/---3-4-4-----2-0-------------------------------------/

OTHER RIFFS (Listen for when to play)

Gtr. 1 and 2
"Don't remind me 'Cause you can't stop me"
[Tremolo picking]
/-----------------------------------------------------/
/-----------------------------------------------------/
/-----------------------------------------------------/
/-----------------------------------------------------/
/-----------------------------------------------------/
/---0~-1~-4~-3~-4~-6~-8~-7~---------------------------/

Gtr. 1 and 2
"Hate Mutha F***a, hate mutha f***a, hate!"
/-----------------------------------------------------/
/-----------------------------------------------------/
/-----------------------------------------------------/
/-----------------------------------------------------/
/---0-0-0---------------------------------------------/
/---0-0-0---------------------------------------------/

Gtr. 1
/-----------------------------------------------------/
/-----------------------------------------------------/
/-----------------------------------------------------/
/------2h3p2h3--3h4p3h4-------------------------------/
/-----------------------------------------------------/
/---4b------------------------------------------------/

Gtr. 2
/-----------------------------------------------------/
/-----------------------------------------------------/
/-----------------------------------------------------/
/-----------------------------------------------------/
/------2h3p2h3--3h4p3h4-------------------------------/
/---4b------------------------------------------------/

BREAKDOWN

Gtr. 1 and 2 (Listen)
/-----------------------------------------------------/
/-----------------------------------------------------/
/-----------------------------------------------------/
/---0-0-0--0-0-0--0-0-0--0-0-0------------------------/
/---0-0-0--0-0-0--0-0-0--0-0-0------------------------/
/---0-0-0--0-0-0--0-0-0--0-0-0------------------------/

Gtr. 2 first, then Gtr. 1 comes in. (Listen to understand.)
/-----------------------------------------------------/
/-----------------------------------------------------/
/-----------------------------------------------------/
/-----------------------------------------------------/
/---0-1-4-0-1-4-0-1-4-0-1-4-0-1-4-0-1-4-0-1-4-0-1-4---/
/---0-1-4-0-1-4-0-1-4-0-1-4-0-1-4-0-1-4-0-1-4-0-1-4---/

OUTRO

[Tremolo picking]
/-----------------------------------------------------/
/-----------------------------------------------------/
/-----------------------------------------------------/
/-----------------------------------------------------/
/----------3~-----------------------------------------/
/---3~-4~~----2~-0~-----------------------------------/

/Told you it was easy. Comment and rate if you would, please./

Suggest correction
Creating personal tab
Creating personal tab
You can edit any tab online and save it as your Personal.

You can edit, replace or remove any tab part or add personal notes – all changes will be seen only by you.

Personal tabs can be accessed anytime from any device, even offline.
Learn more »
Give kudos to tab author, rate the tab!
1 2 3 4 5
comments
print report bad tab
2 comments total.
+1 reply
thezohan 374 Jun 02, 2009 11:41 AM

i like it!!!!!!!!!!!!

0 reply
flinbob52 10 Aug 17, 2010 04:48 PM

this song is intense, great tab by the way

guest
You may want to rate the tab now too:
select rating
Wanna post a correction for this tab? Suggest correction