Oops, an error
Loading. Please wait.

Goodbye intro bass

361 views 3 this week
1 commentread comment
1 2 3 4 5
1 last vote to show rating
add to favorites
×
Save as Personal and add changes to this tab that will be seen only by you. Learn more ›
×
You can save this tab as Personal to edit and correct it or add notes. All changes will be seen only by you. Learn more »
launch autoscroll
font size
0
reset
guitar tuner
edit
Autoscroll
slow
fast
+/-
esc
set tempo
stop
Goodbye (intro) - Slipknot
Tuning: Drop B


[Intro]

E |-------|-------|
B |-------|-------|
F#|-------|-------|
B |-4---7-|---0---|X8


[Verse 1]

E |-------|-------|-------|-------|
B |-------|-------|-------|-------|
F#|-------|-------|-------|-------|
B |--4----|---0---|-4---7-|---0---|

E |-------|-------|
B |-------|-------|X2
F#|-------|-------|
B |-4---7-|---0---|

E |----------------|----------|
B |----------------|----------|X4
F#|----4-2-0-------|----------|
B |-4--------6-4--7|--0-------|


[Verse 2]

E |----|---------|--------|-----------------------|
B |----|---------|--------|-----------------------|
F#|----|---------|--------|-----------------------|
B |-2--|--4--2---|---0----|----0------------------|

E |-----|----------------------------|
B |-----|----------------------------|
F#|-----|----------------------------|
B |-2---|---4--2--0------------------|

E |-------|------------------------------------|
B |-------|------------------------------------|
F#|-------|------------------------------------|
B |-4-2---|---4---2-0--------------------------|

E |-------|--------|--------------------------|
B |-------|--------|--------------------------|
F#|-------|--------|--------------------------|
B |-2-----|-----0--|----0---------------------|

...Goodbye

E |----------------|----------|
B |----------------|----------|
F#|----4-2-0-------|----------|
B |-4--------6-4--7|--0-------|

            
            
Suggest correction
Creating personal tab
Creating personal tab
You can edit any tab online and save it as your Personal.

You can edit, replace or remove any tab part or add personal notes – all changes will be seen only by you.

Personal tabs can be accessed anytime from any device, even offline.
Learn more »
Give kudos to tab author, rate the tab!
1 2 3 4 5
comments
print report bad tab
1 comment total.
0 reply
henrihell 510 Feb 17, 2017 09:46 AM

Seems pretty correct to me. I feel like there's a few "fill" notes missing in verse 2 and I'm pretty sure the melody at the end of both verses should be an octave higher.

guest
You may want to rate the tab now too:
select rating
Wanna post a correction for this tab? Suggest correction