Oops, an error
Loading. Please wait.

Heretic Anthem Bass Tab

version 2
version 2

Whole song

Interactive

6,472 views 6 this week
1 commentread comment
1 2 3 4 5
accurate
x 4
add to favorites
launch autoscroll
font size
0
reset
guitar tuner
Autoscroll
slow
fast
+/-
esc
set tempo
stop
Help us to improve Ultimate-Guitar.com Take our survey!
×
Author
D|----------------------------------------------------------------------|
A|----------------------------------------------------------------------|
E|----------------------------------------------------------------------|
B|--1--0-0-0-1--0-0-1--0-0-1--0-0-1--0-0-1--0-0-1--0-0-1--0-0-1--0-0-1--|

D|-------|
A|-------|
E|-------|
B|0-0-1| (12x)

D|------------------|
A|------------------|
E|------------------|
B|0-0-1-1-1-1-------| (1x)

D|------------------------------------------|
A|----------------0-------------------------|
E|-------4-5--------------------------------|
B|0--1--------------4-0-3-0-2---------------| (8x)
D|------------------------------------------|

A|-----------------------|
E|-----------------------|
B|0-1-0-3-0-5-0-7--------| (8x)

D|-------------------------------|
A|-------------------------------|
E|-------------------------------|
B|0-0-0-1-0-0-1-0-3-4-3----------| (8x)

D|-----------------------|
A|-----------------------|
E|-----------------------|
B|0-1-0-3-0-5-0-7--------| (8x)

D|-------------------|
A|-------------------|
E|-------------------|
B|12\--12\--12-------| (2x)

D|--------------------------------------------------------------------|
A|--------------------------------------------------------------------|
E|---------------------------------1-----------------------1-0--------|
B|0-0-0-0-1-0-0-0-0-0-1-0-0-1-0-0------0-0-0-0-1-0-0-0-0---------2-1--| (4x)

D|----------------------------------------------------------|
A|----------------------------------------------------------|
E|-----------------------------1--------------1-0-----------|
B|----------------------------------------------------------| (2x)

D|--------------------------------------------------------------------|
A|--------------------------------------------------------------------|
E|--------------------------------------------------------------------|
B|1--0-0-0-1--0-0-1--0-0-1--0-0-1--0-0-1--0-0-1--0-0-1--0-0-1--0-0-1--| (2x)

D|-------|
A|-------|
E|-------|
B|0-0-1| (12x)

D|-----------------|
A|-----------------|
E|-----------------|
B|0-0-1-1-1-1------| (1x)

D|------------------------------------------|
A|----------------0-------------------------|
E|-------4-5--------------------------------|
B|0--1--------------4-0-3-0-2---------------| (8x)

D|-----------------------|
A|-----------------------|
E|-----------------------|
B|0-1-0-3-0-5-0-7--------| (8x)

D|-------------------------------|
A|-------------------------------|
E|-------------------------------|
B|0-0-0-1-0-0-1-0-3-4-3----------| (8x)

D|-----------------------|
A|-----------------------|
E|-----------------------|
B|0-1-0-3-0-5-0-7--------| (8x)

D|--------------------|
A|--------------------|
E|--------------------|
B|12\--12\--12--------| (1x)

D|--------------------------------------------------------------------|
A|--------------------------------------------------------------------|
E|---------------------------------1-----------------------1-0--------|
B|0-0-0-0-1-0-0-0-0-0-1-0-0-1-0-0------0-0-0-0-1-0-0-0-0---------2-1--| (4x)

D|--------------------------------------------------------------------|
A|--------------------------------------------------------------------|
E|-----------------------------1--------------1-0---------------------|
B|0-0-0-0-1-------0-0-0-1-0-0----0-0-0-0-1----------2-1---------------| (2x)

D|------------------------------------------------------|
A|------------------------------------------------------|
E|----------------------------1-------------------------|
B|0-0-0-0-1-------0-0-0-1-0-0----0-0-0-0-1--------------| (X4)

D|----------------------------|
A|----------------------------|
E|----------------------------|
B|2~-----2/ 2\ 2~----2--------| (play this slow)

D|-----------------------|
A|-----------------------|
E|-----------------------|
B|0-1-0-3-0-5-0-7--------| (4x)

D|---------------------------------------------------------------------------------------|
A|---------------------------------------------------------------------------------------|
E|---------------------------------1----------------------1-0----------------------------|
B|0-0-0-0-1-0-0-0-0-0-1-0-0-1-0-0-----0-0-0-0-1-0-0-0-0---------2-1----------------------|

D|-----------------------------------------------------------------|
A|-----------------------------------------------------------------|
E|---------------------------------1----------------------1-0------|
B|0-0-0-0-1-0-0-0-0-0-1-0-0-1-0-0-----0-0-0-0-1-0-0-0-0---------2--| (1x)


D|------------------------------------------------------|
A|------------------------------------------------------|
E|----------------------------1-------------------------|
B|0-0-0-0-1-------0-0-0-1-0-0----0-0-0-0-1--------------| (4x)

D|----------------------------|
A|----------------------------|
E|----------------------------|
B|2~-----2/ 2\ 2~----2--------| (play this slow)

D|-----------------------|
A|-----------------------|
E|-----------------------|
B|0-1-0-3-0-5-0-7--------|(4x)

D|-------------------------------------------------------------------|
A|-------------------------------------------------------------------|
E|---------------------------------1----------------------1-0--------|
B|0-0-0-0-1-0-0-0-0-0-1-0-0-1-0-0-----0-0-0-0-1-0-0-0-0---------2-1--|(4x)

D|-----------------------------------------------------------------|
A|-----------------------------------------------------------------|
E|---------------------------------1----------------------1-0------|
B|0-0-0-0-1-0-0-0-0-0-1-0-0-1-0-0-----0-0-0-0-1-0-0-0-0---------2--| (1x)
Suggest correction
What's this?
You can suggest a correction to this tab. Community and Mods will review your correction and vote to approve or reject it.
comments
print report bad tab
1 comment total.
0 reply
jose2993 51 wrote on July 4 2009, 01:02 pm

Isnt this standard tuning with a low b string?

guest
You may want to rate the tab now too:
select rating
Please do not post tabs as comments. Select "correction" instead!