Oops, an error
Loading. Please wait.

Iowa Bass Tab

version 1
version 1

Album

Whole song

Interactive

7,547 views 3 this week
1 commentread comment
1 2 3 4 5
please rate
add to favorites
launch autoscroll
font size
0
reset
guitar tuner
Tab Pro tools
  • play this tab
  • loop segment
  • change instrument
  • show fretboard
  • metronome
×
Best way to learn
"Iowa"
Autoscroll
slow
fast
+/-
esc
set tempo
stop
Contributor
1:(515)
2:People=Shit
3:Disasterpiece
4:My Plague
5:Everything Ends
6:The Heretic Anthem
7:Gently
8:Left Behind
9:The Shape
10:I Am Hated
11:Skin Ticket
12:New Abortion
13:Metabolic
14:IOWA

1:(515)

Don't know if this is right!
_________________________________________________________________________________

riff 1:

|---9-12-13-10----9-12-13-9----9-12-13-10----9-12-13-10-|
|-9-------------9------------9-------------9------------|
|-------------------------------------------------------|
|-------------------------------------------------------|

riff 2:

|---9-12-13-10-12----9-12-13-10-12----9-12-13-18-17----9-12-13-18-17-|
|-9----------------9----------------9----------------9---------------|
|--------------------------------------------------------------------|
|--------------------------------------------------------------------|

The order:
Riff 1
Riff 2  (x2)
Riff 1
Riff 2

2:People=Shit

D|-----------------------------------------|
A|-----------------------------------------|
E|-----------------------------------------|
A|5-4-0-0-3-2-0-0-5-4-0-0-3-2-0-0--0--0--0-|

D|----------------------------------------------------------------|
A|2-2-2-2-2-2-2-2-----------------2-2-2-2-2-2-2-2-----------------|
E|----------------3-3-3-3-3-3-3-3-----------------3-3-3-3-3-3-3-3-|
A|----------------------------------------------------------------|

D|----------------------------------------------------------------|
A|----------------------------------------------------------------|
E|----------------------------------------------------------------|
A|1-1-1-1-1-1-1-1-3-3-3-3-3-3-3-3-2-2-2-2-2-2-2-2-4-4-4-4-4-4-4-4-|

D|----------------------------------------------------------------|
A|2-2-2-2-2-2-2-2-----------------2-2-2-2-2-2-2-2-----------------|
E|----------------3-3-3-3-3-3-3-3-----------------3-3-3-3-3-3-3-3-|
A|----------------------------------------------------------------|

D|--------------------|
A|--------------------|
E|--------------------|
A|1--1--1--1 / 12 \ 1-|

D|------------------------------|
A|------------------------------|
E|------------------------------|
A|0-3-2-0-2-0---0-3-2-0-5-------|(bend)

D|------------------------------------------|
A|------------------------------------------|
E|------------------------------------------|
A|0-2-0-2---4---0-2-0-2---4---0-2-0-5-------|(bend)

D|----------------------|
A|2~~3~~------2~~3~~----|
E|-------3~2--------3~2-|
A|----------------------|

D|--------------------------------|
A|2~~3~~------2--2--2--2----------|
E|-------3~2--------------3~2(/12-| once at the end
A|--------------------------------|

D|--------------------------------|
A|--------------------------------|
E|--------------------------------|
A|0-2-0-1-0-1-0---0-2-1-0-5-------|(bend)

D|--------------------------------------------------|
A|--------------------------------------------------|
E|--------------------------------------------------|
A|1-1-1---1-1---1-1---1-1---1-1-1-1-1-1---1-1---1-1-|

D|--------------------------------|
A|--------------------------------|
E|--------------------------------|
A|0-2-0-1-0-1-0---0-2-1-0-5-------|(bend)

D|-----------------|
A|2~~3~~----2~~3~~-|
E|------3~2--------|
A|-----------------|

D|----------------|
A|----------------|
E|----------------|
A|8-8-0-9-0-0-5-5-|

D|----------------|
A|----------------|
E|----------------|
A|1-1-1-2-1-1-3-4-|

D|-------|
A|-------|
E|-------|
A|1~~~~~~

D|----------------|
A|----------------|
E|----------------|
A|8-8-0-9-0-0-5-5-|

D|-----------------------------------------|
A|-----------------------------------------|
E|-----------------------------------------|
A|5-4-0-0-3-2-0-0-5-4-0-0-3-2-0-0--0--0--0-|


3:Disasterpiece

INTRO (0:09)                        (0:36)                    (0:54)
G|-----------------------|-------------------------------|-------------|
D|-----------------------|-------------------------------|-------------|
A|-----------------------|-------------------------------|-------------|
B|--0-0-1--0-0-1--0-0-0--|--0-0-1-0-0-1-0-0-0H2-2R0-3H1--|--000-111-0--|
*12                              *8                             *1

VERSE (1:01)                                 (1:10)
G|-------------------------------|--------------------------------|
D|-------------------------------|--------------------------------|
A|-------------------------------|--------------------------------|
B|--0-0-0-1-1-1-0-2H1-0-3H1-4H1--|--0-0-0-1-1-1-0--2H1-0-3H1-4H1--|
*4                                        *4

CHORUS (1:18)                            (1:20)
G|-----------------|---------------------------------------------------|
D|-----------------|---------------------------------------------------|
A|-----------------|---------------------------------------------------|
B|--0-0-0-1-1-1-0--|--888888888888-111111111111-00000-11111-00000-210--|
*1                                *2

(1:27)                             (1:29)
G|-----------------|---------------------------------------------------|
D|-----------------|---------------------------------------------------|
A|-----------------|---------------------------------------------------|
B|--0-0-0-1-1-1-0--|--888888888888-111111111111-00000-11111-00000-210--|
*1                                 *2


VERSE (1:43)                                        (1:58)
G|-------------------------------------------|-----------------------------|
D|-------------------------------------------|-----------------------------|
A|-------------------------------------------|-----------------------------|
B|-(0/5-0/7\1)--0-0-0-1-1-1-0--2H1-0-3H1-4H1-|-0-0-0-1-1-1-0-2H1-0-3H1-4H1-|
*4                                                   *4

(2:06)
--------------------------------|
--------------------------------|
--------------------------------|
--1-1-1-2-2-2-1--2H1-0-3H1-4H1--|
4*

CHORUS (2:15 - 2:33)


BRIDGE (2:33)           (2:42)         (3:01)             (3:20)
G|------------|------------------|------------------|------------------|
D|------------|------------------|------------------|------------------|
A|------------|------------------|------------------|------------------|
B|--0-0-1-0-0-|-0-0-3-4--1-5-6-7-|-X-0-3-4--1-6-7-8-|-X-0-3-4--1-5-6-7-|
*4                    *8              *8                      *4

(3:32)                                          (3:46)
G|----------------------------------------|-----------------|
D|----------------------------------------|-----------------|
A|----------------------------------------|-----------------|
B|--7-12--7/9--12\9--11\7--9\5--7\3--5\1--|--0-0-0-3-3-3-2--|
*1                                              *8

(4:03)
------------------------------------|
------------------------------------|
------------------------------------|
--(5\0)-0-0-0-3-3-3-2--3-5-5-5-6-6--|
7*

OUTRO (4:19)                                (4:48)
G|------------------------------|------------------------------|
D|------------------------------|------------------------------|
A|------------------------------|------------------------------|
B|--(7-12\0)--X-0-3-4--1-6-7-8--|---(5/9\0)--0-0-3-4--1-5-6-7--|
*12                                                    *8

4:My Plague

Intro
D-------------    D---------------|
A-------------x8  A---------------|x4
E-------------    E---------------|
B-0000-guitar-    B-0-0-0-guitar--|

Verse
D-------------   Rest   D-------------|
A-------------x8 During A-------------|
E-------------   Drums  E-------------|
B-0-0-0-1---2-          B-0-0-0-1---2-|

Chorus
D-------------------------------------------------------------------|
A-------------------------------------------------------------------|x2
E-------------------------------------------------------------------|
B-0--5--7--10--22222222-55555555--0--5--7--10--33333333-66666666----|

2nd Verse
D-------------   D-------------|
A-------------x2 A-------------|
E-------------   E-------------|
B-0000-1---2--   B-0-0-0-1---2-|

Chorus x2

Bridge (no bass until 3rd bridge)

D----------------------------    D-------------------------------|
A----------------------------x2  A-------------------------------|x12
E----------------------------    E-------------------------------|
B--0-1-0-3-2--1-0--2-4-3-6-5-    B-0-1-0-3--6H5-3H4-0-1-5432-6H5-|

Chorus x4

Verse x8

Outro
D-----------------------     D---------|
A-----------------------x4   A---------|x4
E-----------------------     E---------|
B--0-0-0-1-0--0-1H2-2p1-     B-00000---|

5:Everything Ends

Intro I
D|-----------------------------------------------------------------|
A|-----------------------------------------------------------------|
E|-----------------------------------------------------------------|
A|-1/-101010101010101099999999333333336666666655555555551111111111-|

Intro II
D|----------------------------------------|
A|----------------------------------------|
E|----------------------------------------|
A|-0/2/4\2-0--2/4\2-0-4-0-6-0-4-0/2/4\2-0-|

Verse
D|-------------------------|
A|-------------------------|
E|-------------------------|
A|-2-1-0-1-0-1/2--1/2--1/2-|

Play this just before the chorus
D|------|
A|------|
E|------|
A|-0010-|

Chorus I
D|--------------------------------------------------------------|
A|--------------------------------------------------------------|
E|--------------------------------------------------------------|x2
A|-101010101010101099999999333333336666666655555555551111111111-|

Chorus II
D|------------------------------------------------------------------|
A|------------------------------------------------------------------|
E|------------------------------------------------------------------|x2
A|-1010101010101010999999993333333366666666555555555555111111111111-|

D|--------------------------------------------------------------------------------------|
A|------------------------------------------2-2/4\2-2-2/4\2-2/4\2-----------------------|
E|----------------------------------------------------------------2-2/4\2-2-2/4\2-2/4\2-|x1
A|-1010101010101010999999993333333366666666---------------------------------------------|

D|------------------------------------------------------------------|
A|------------------------------------------------------------------|
E|------------------------------------------------------------------|x1
A|-1010101010101010999999993333333366666666555555555555111111111111-|

Bridge
D|-----------------|
A|-----------------|
E|-----------------|x4
A|-0-1-6-1-0-1-0-1-|

Heavy bridge
D|-----------------|
A|-----------------|
E|-----------------|x9
A|-0-1-6-1-0-1-0-1-|

D|---------------------|
A|---------------------|
E|---------------------|x1
A|--8\-0-1-6-1-0-1-0-1-|

D|-----------------|
A|-----------------|
E|-----------------|x5
A|-0-1-6-1-0-1-0-1-|

Before last chorus:
D|---------------------------|
A|---------------------------|
E|---------------------------|x1
A|-0-6-0-6-0-1-0-1-0-6-0-6-0-|

Last chorus: Same as Chorus II

Outro
D|----------------------------------------|
A|----------------------------------------|
E|----------------------------------------|x3
A|-0/2/4\2-0--2/4\2-0-4-0-6-0-4-0/2/4\2-0-|

D|--------------------------|
A|--------------------------|
E|--------------------------|x1
A|-0/2/4\2-0--2/4\2-0-4-0-6-|

6:The Heretic Anthem

/=slur up a fret (3-2)
\=slur down a fret (2-3)
+= play for one extra beat          >= Slide into
                                  And rest with a period will be a dotted rest
(add one beat to the rest)

              Bass Fig 1- Play 2x
D|----|------|-----------|
A|----|------|-----------|
E|----|------|-----------|
A|----|----8>|:0001 0001:|x2
End of Fig 1

D|-----|-------|
A|-----|-------|
E|-----|-------|
A|0----|----8+>|

Bass Fig 2- play 3x
D|-----------|
A|-----------|
E|-------4/3-|
A|003/2 0---4|
End of  Fig 2

Bass Fig 3- play 3x
D|---------|--------|
A|---------|--------|
E|---------|--------|
A|2-55+-4-5|6-56+ 78|
End of Fig 3

            Bass Fig 4
D|----|----|---------|------------|
A|----|----|---------|------------|
E|----|----|---------|------------|
A|----|--8+|0001-0001|001\3-3/23\5|
End of Fig 4
                                      x1
D|----|----|----|----|----|----|----|----|--------|----|
A|----|----|----|----|----|----|----|----|--------|----|
E|----|----|----|----|----|----|----|----|--------|----|
A|-010|3---|----|----|----|----|----|9+--|9+-006\5|05-3|

Bass Fig 5
D|---------|---------|---------|
A|---------|---------|---------|
E|---------|---------|---------|
A|0103-0000|0123-0108|0123-0000|

End of Fig 5
D|----------|---------|---------|---------|
A|----------|---------|---------|---------|
E|---------3|---------|---------|---------|
A|06\50-530-|0103-0000|0123-0108|0123-0000|

D|---------|---------|
A|---------|---------|
E|---------|---------|
A|06\50-53-|06\50-53-|

Bass Fig 6
D|------|--------|-----|-----|------|------|-----|----|
A|------|--------|-----|-----|------|------|-----|----|
E|------|--------|-----|-----|------|------|-----|----|
A|0103--|0123-1-8|123--|1-30-|0103--|123-18|123--|----|
End of Fig 6

D|---|----|----|----|----|-----|
A|---|----|----|----|----|-----|
E|---|----|----|----|----|-----|
A|2++|----|----|----|2+--|00-1-|

D|----|----|-------|---------|
A|----|----|-------|---------|
E|----|----|-------|---------|
A|2+--|----|2+-0000|1155-0000|

D|----|---------|---------|---------|
A|----|---------|---------|---------|
E|----|---------|---------|---------|
A|----|0103-0000|0123-0108|0123-0000|

D|----------|--------|
A|----------|--------|
E|----------|--------|
A|06\50-5303|06\50-5-|

7:Gently

E -------------------------------------------------|
B -------------------------------------------------|
F#-------------------------------------------------|
B --3---333---3333333777---7\2---222---2222222555--| x16

E -------------------------------------------------------------------|
B -------------------------------------------------------------------|
F#-------------------------------------------------------------------|
B --3---2---3---2---888---3---0002---3---0002---3---0002---22222222--|

E -------------------------------------------------|
B -------------------------------------------------|
F#-------------------------------------------------|
B --3---333---3333333777---7\2---222---2222222555--| x8

E -----------------...------...---------------|
B -----------------...------...---------------|
F#-----------------...------...---------------|
B --3---3---3---3--...--7\--...--7\---7\---0--|

E ---------------------------|
B ---------------------------|
F#---------------------------|
B --0-1-0-3---0-4-3-1---000--| x8

E -----------     ... -----------|
B -----------     ... -----------|
F#-----------     ... -----------|
B --0-1-0-3-- x8  ... --5-3-0-1--|

E ---------------------------|
B ---------------------------|
F#---------------------------|
B --0-1-0-3---0-4-3-1---000--| x12

8:Left Behind

Intro
D--------------    D---------------|
A-------------- x7 A---------------|
E--------------    E---------------|
B-0-0---0-0-0--    B-0/12-12-12-12-|

Verse
D-------------------------------|
A--------3--------------3-------|x4
E----2-------2------2-------23--|
B-100-000-000-000100-000-000----|

Chorus
D-----------------------------------------------------|
A------------------------------------33----33---3-----| x4
E-1-1-1-1-1-1-1-1-----------------33----33----33------|
B-----------------1-1-1-1-1-1-1-1---------------------|

Intro after chorus

Verse again

Pre-chorus
D--------------------|
A----33----33---3----|
E-33----33----33-----|
B--------------------|

Chorus

Interlude
D--------------------------------------|
A----33----33----3---------------------|
E-33----33----33---11111111------------|
B---------------------------11111111---|

Pre-chorus again
Chorus again
Intro again
End

9:The Shape

INTRO
|------------------------------|
|------------------------------|
|------------------------------|
|-0-8-13-0-1-3-1-0--8-13-0-1-3-|

CHORUS
|--------------------------------------------|
|--------------------------------------------|
|--------------------------------------------|
|-9--8--9--4--4--3----3--4--3--4--6--5--6--8-|

VERSE
|-------|-------------------------|
|-------|-------------------------|
|-------|-------------------------|
|-18/0--|-2-1---0-1-2-1---0-1-2-1-|

CHORUS
|--------------------------------------------|
|--------------------------------------------|
|--------------------------------------------|
|-9--8--9--4--4--3----3--4--3--4--6--5--6--8-|

VERSE
|-----8/7-8/7---7-----8/7-8/7-----8/7-8/7-8/7--------|
|-----------------6---------------------------6------|
|-6-----------6-----5--------7-7---------------5-----|
|----------------------------------------------------|

CHORUS
|--------------------------------------------|
|--------------------------------------------|
|--------------------------------------------|
|-9--8--9--4--4--3----3--4--3--4--6--5--6--8-|

BRIDGE
|--------------------------|-------------------------|
|--------------------------|-------------------------|
|--------------------------|-------------------------|
|-2-1---0-1-2-1---0-1-20/0-|--2p1--0-1-2-1-2-0-1-2-1-|

CHORUS
|--------------------------------------------|
|--------------------------------------------|
|--------------------------------------------|
|-9--8--9--4--4--3----3--4--3--4--6--5--6--8-|

END
|-------|-------------------------|
|-------|-------------------------|
|-------|-------------------------|
|-18/0--|-2-1---0-1-2-1---0-1-2-1-|

10:I Am Hated

INTRO
D|----------------------------------------------|   X1
A|----------------------------------------------|
E|----------0--1------------0--1------------0-1-|
B|-3-2-0------------3-2-0-----------3-2-0-------|

VERSE
D|------------------------|----------------------|  X8
A|------------------------|----------------------|
E|-----11-12-------14-12--|-----11-12------14-12-|
B|-12------------12-------|-12------------12-----|

CHORUS
D|---------------------------| X8
A|---------------------------|
E|---------------------------|
B|-3-2-0---6-5--0--0-0--6-5--|

VERSE X4
CHORUS X8

INTERLUDE
D|----------------|  X4
A|----------------|
E|------------1---|
B|-3-1-0^---3---0-|

D|----------------------------|   X10
A|----------------------------|
E|----------------------------|
B|-3-2-0----5-6---3-2-0---5-6-|

D|-----|
A|-----|
E|-----|
B|-000-|

D|---------|
A|---------|
E|---------|
B|--0-6-0--|

CHORUS
D|-----------------------------| X10-|
A|-----------------------------------|
E|-----------------------------------|
B|-3-2-0---6-5--0--0-0--6-5-(0)------|


11:Skin Ticket

Riff 1
E |----------------------------|
B |----------------------------|
F#|----------------------------|
B |-----0~~~~~~~~1-0~~~~~~~~~~-|

E |-------------|
B |-------------|
F#|-------------|
B |---3-2-3-2-3-|

Riff 2
E |-------------|
B |-------------|
F#|-------------|
B |---0~~3~~2~~-|

Riff 3
E |-------------------|
B |-------------------|
F#|-------------------|
B |--0000-3333-222222-|

Riff 4 (During the solo)
E |-------------------|
B |-------------------|
F#|-------------------|
B |---3-2-0-0-3-5-0-0-|

Riff 5
E |-----------------------|
B |-----------------------|
F#|-----------------------|
B |--2-1-2-1-2--2-1-2-1-2-|

12:New Abortion

intro heavy slap(play with effects for a really good sound)
1 ---------------------------------------------------------------------|
2 ---------------------------------------------------------------------|
3 000-space-while-guitar-plays-4-times-000-000-000-000-000-000-000-000-|
4 ---------------------------------------------------------------------|

verse 1 play quite fast same for verse 2
1 -------------------------------------------------------------------------|
2 -------------------------------------------------------------------------|
3 00001000-00003000-00001000-00003530-00001000-00003000-00001000-00003530--| x2
4 -------------------------------------------------------------------------|

chorus riff 2

1 ------------------------------------------|
2 ------------------------------------------|
3 23200000232000002320000023200000----------|  x2
4 ------------------------------------------|

bride riff 3 listen to the song for timing
1 ---------------------------------------|
2 ---------------------------------------|
3 22223222-22223270-22223222-22223270----|
4 ---------------------------------------|

I think chorus is after this if any thing wrong im at die666e@yahoo.com

13:Metabolic

Intro
D|------------------------------------|
A|----------------------|-------------|
E|-----6/7-----6/7-7\5--|     --------|
B|-000-----000----------|     --------|
                               |------| Repeat this 3 times
D|-----------------|          --------|
A|-----------------|          --------|
E|-----6/7-----7\5-|------------------|
B|-000-----000------------------------|

Last Time
D|---------------------|
A|---------------------|
E|-----6/7-----6/7-7\5-|
B|-000-----000---------|

D|---------|
A|---------|
E|-----6/7-|
B|-000-----|

Intro II
D|---------------|
A|---------------|
E|------6/7-7\5--|
B|-0000----------|

Verse I
D|-----------------|
A|-----------------|
E|---------2---1---|x8
B|-3-2-1-0---0---1-|

play The intro once and then play the verse 8 times

Pre - Chorus
D|---------|
A|---------|
E|---------|
B|-1-2-1-2-|

Chorus
D|------------------------|
A|------------------------|
E|-6^---------------------|x1
B|----4\3-5\4-6\5-7\6-7/8-|

D|-------------------------|
A|-------------------------|
E|-666---------------------|x2
B|-----4\3-5\4-6\5-7\6-7/8-|

D|-r-|---------------------|
A|-e-|---------------------|
E|-s-|---------------------|x1
B|-t-|-4\3-5\4-6\5-7\6-7/8-|

D|-------------------------|
A|-------------------------|
E|-------------------------|x4
B|-000-4\3-5\4-6\5-7\6-7/8-|

Pre - verse
D|----------|
A|----------|
E|----------|
B|-0000-12\-|

Verse II
D|---------------|
A|---------------|
E|------6/7-7\5--|x8
B|-0000----------|

D|------------------------------------------|
A|------------------------------------------|
E|---------------------6/7-7\5------6/7-7\5-|
B|-0000-0000-0000-0000---------0000---------|

Bridge I
D|-----------------------|
A|-----------------------|
E|-----------------------|x1
B|-000000--000000-000000-|

D|------------------------|
A|------------------------|
E|------------------------|x3
B|-00033322224441111/6666-|

D|-------------|
A|-------------|
E|-------------|x1
B|-00033322224-|

Heavy Bridge
D|----------------|
A|----------------|
E|----------------|x12
B|-00-3-2-4-1-3/6-|

Rest while Corey sings "for memories"

Then continue with this
D|-----------|
A|-----------|
E|-----------|x1
B|-2-4-1-3/6-|

D|----------------|
A|----------------|
E|----------------|x3
B|-00-3-2-4-1-3/6-|

Pre - Chorus II
D|----------------|
A|----------------|
E|----------------|
B|-00-00-0000-000-|

Last Chorus
D|---------------------|
A|---------------------|
E|---------------------|x1
B|-4\3-5\4-6\5-7\6-7/8-|

D|-------------------------|
A|-------------------------|
E|-666---------------------|x2
B|-----4\3-5\4-6\5-7\6-7/8-|

D|-r-|---------------------|
A|-e-|---------------------|
E|-s-|---------------------|x1
B|-t-|-4\3-5\4-6\5-7\6-7/8-|

D|-------------------------|
A|-------------------------|
E|-------------------------|x8
B|-000-4\3-5\4-6\5-7\6-7/8-|

Outro
D|----------------|
A|----------------|
E|----------------|x7
B|-00-3-2-4-1-3/6-|

D|------------|
A|------------|
E|------------|x1
B|-00-3-2-4-1-|

14:IOWA

Riff A
G:-8--------|
D:---5-6--0-|
A:----------|
D:----------|

Riff B
A:-----------|
D:-2~-2--2-0-|

Thanks---remember
die666e@yahoo.com
also add me on myspace if you want a bass friend :)
www.myspace.com/slipknots_number1_fan


HAVE FUN!!!!!!!!!!!!!!!!!!!
comments
We did not receive enough feedback on this tab! Please rate:
print report bad tab
1 2 3 4 5
1 comment total.
0 reply
Survivalism wrote on August 5 2008, 11:22 am

Dude, literally the ONLY thing correct in this tab is Gently.

I want to post or [tab]
guest
You may want to rate the tab now too:
select rating
Please do not post tabs as comments. Select "correction" instead!