Oops, an error
Loading. Please wait.

Iowa tab

version 3
version 3

Whole song

Interactive

5,020 views 6 this week
2 commentsread comments
1 2 3 4 5
x 8
add to favorites
×
Save as Personal and add changes to this tab that will be seen only by you. Learn more ›
×
You can save this tab as Personal to edit and correct it or add notes. All changes will be seen only by you. Learn more »
launch autoscroll
font size
0
reset
how to read this tab
guitar tuner
edit
Autoscroll
slow
fast
+/-
esc
set tempo
stop
-------------------------------------------------------------------------------
                             Iowa – Slipknot   Album-Iowa
-------------------------------------------------------------------------------
Tabbed by: thezohan
BTW, all other tabs for this song are horribly wrong.

Tuning: Drop A (A,E,A,D,F#,B)

It’s really on bass guitar, but it takes up a lot of the song, so I figured
I would tab it.
|-----------------------------------------------------------------------|
|-----------------------------------------------------------------------|
|-4----------------4---------------4---------------4--------------------|
|------2-----------------2----------------2---------------2-------------|
|-----------------------------------------------------------------------|
|----0----2-----------0-----2----------0------2--------0-----2----------|

Main Riff (Chorus)
|-------------------------------------------|
|-------------------------------------------|
|-------------------------------------------|
|-2b3--2----2-0------2b3--2---2-------------|
|-2b3--2----2-0------2b3--2---2-------------|
|-2b3--2----2-0------2b3--2---2-------------|

Verse (Lead)
|----------------------------------------------------------------|
|----------------------------------------------------------------|
|----------------------------------------------------------------|
|----------------------------------------------------------------|
|-7b8--7--7-5----7b8--7--7--------7b8--7--7-5----7b8--7--7-------|
|----------------------------------------------------------------|

Verse (Rhythm)
|----------------------------------------------------------------|
|----------------------------------------------------------------|
|----------------------------------------------------------------|
|----------------------------------------------------------------|
|----------------------------------------------------------------|
|-2b3--2--2-0----2b3--2--2--------2b3--2--2-0----2b3--2--2-------|

Yeah that’s really it. Keep it up for 15 minutes and you’ll be fine lol.
Oh yeah, near the end, they do the main riff with a flanger. BTW don’t reject it 
Because you think it’s a fake song. Well I guarantee you it isn’t.
(My tattered and torn tab got rejected because someone said “is that even a real song”)

| /  slide up
| \  slide down
| h  hammer-on
| p  pull-off
| ~  vibrato
| +  harmonic
| x  Mute note
===============================================================================
Suggest correction
Creating personal tab
Creating personal tab
You can edit any tab online and save it as your Personal.

You can edit, replace or remove any tab part or add personal notes – all changes will be seen only by you.

Personal tabs can be accessed anytime from any device, even offline.
Learn more »
comments
print report bad tab
2 comments total.
+1 reply
rongold360 150 Jul 03, 2009 08:31 AM

Nice tab maggot.
-Ronnie

0 reply
thezohan 374 Jul 03, 2009 10:50 AM

thanks,and i dont know how they keep up a 15 min. song with 4 riffs lol

guest
You may want to rate the tab now too:
select rating
Wanna post a correction for this tab? Suggest correction