Oops, an error
Loading. Please wait.

Killers Are Quiet Bass Tab

version 2
version 2

Whole song

Interactive

503 views 1 this week
no commentswrite comment
1 2 3 4 5
please rate
add to favorites
launch autoscroll
font size
0
reset
guitar tuner
Autoscroll
slow
fast
+/-
esc
set tempo
stop
Help us to improve Ultimate-Guitar.com Take our survey!
×
Author
Difficulty
novice
Well this is Killers are quiet. which is kinda like the song IOWA.
the begining is pretty basic.

G[-----------12---------------------]
D[---------------8--10--0-----------]
E[----------------------------------]
A[----------------------------------]

^^^^^^^RIFF#1^^^^^^^^^^

then after playing riff 1 28 times, you pause and let the drums play.

then after that, you come in with guitar and play riff #2 wich is basically the whole song.

G[--------------------------------]
D[--------------------------------]
E[--------------------------------]
A[-----3--3--3--1--3--3-----------]

(hint: YOU CAN PLAY ON THE A STRING OR THE E STRING)

Hey, also if that riff isnt comfortable, you can do this one.

G[--------------------------------]
D[--------------------------------]
E[--------------------------------]
A[-----2--2--2--0--2--2-----------]

the same thing. just that one is higher and 1 is lower.

and then just figure out what parts to play at each parts.

there is no other riffs except these. >:)

[[KEEP IT METAL]]
Suggest correction
Give kudos to tab author, rate the tab!
1 2 3 4 5
comments
print report bad tab
guest
You may want to rate the tab now too:
select rating
Wanna post a correction for this tab? Suggest correction