Oops, an error
Loading. Please wait.

Left Behind Bass Tab

version 1
version 1
14,442 views 30 this week
2 commentsread comments
1 2 3 4 5
excellent!
x 3
add to favorites
launch autoscroll
font size
0
reset
guitar tuner
Autoscroll
slow
fast
+/-
esc
set tempo
stop
Help us to improve Ultimate-Guitar.com Take our survey!
×
down tune your bass to B E A D to play this song 

Intro 
D--------------    D---------------
A-------------- x7 A---------------
E--------------    E---------------
B-0-0---0-0-0--    B-0/12-12-12-12-

Verse
D-------------------------------
A--------3--------------3-------x4  
E----2-------2------2-------23--
B-100-000-000-000100-000-000----

Chorus
D-----------------------------------------------------
A------------------------------------33----33---3----- x4
E-1-1-1-1-1-1-1-1-----------------33----33----33------
B-----------------1-1-1-1-1-1-1-1---------------------

Intro after chorus

Verse again

Pre-chorus
D--------------------
A----33----33---3----
E-33----33----33-----
B--------------------

Chorus 

Interlude (its kinda like playing the chorus backwards)

D--------------------------------------
A----33----33----3---------------------
E-33----33----33---11111111------------
B---------------------------11111111---

Pre-chorus again
Chorus again
Intro again
End
Suggest correction
Give kudos to tab author, rate the tab!
1 2 3 4 5
comments
print report bad tab
2 comments total.
0 reply
Daisy_Ramirez 10 wrote on April 1 2006, 05:26 am

Hey, SlipKnot's tuning is Dropped-B, which is from low to high:
B, F#, B, E, G#, C# for guitar, and for bass:
B, F#, B, E

0 reply
slipknot_4_life 51 wrote on April 13 2006, 02:30 am

hey and in the chorus paul goes like this:

G|---------------------------------------
D|---------------------------------------
A|-------------------------------------
E|--33/88--33/88--3/8---11111111---------
B|------------------------------11111111--

It sounds a lot better if u slide it.

guest
You may want to rate the tab now too:
select rating
Please do not post tabs as comments. Select "correction" instead!