Oops, an error
Loading. Please wait.

Liberate Bass Tab

version 1
version 1

Whole song

Interactive

4,662 views 6 this week
1 commentread comment
1 2 3 4 5
x 4
add to favorites
launch autoscroll
font size
0
reset
guitar tuner
Autoscroll
slow
fast
+/-
esc
set tempo
stop
Help us to improve Ultimate-Guitar.com Take our survey!
×
Author
Artist - Slipknot
Song - Liberate
Album - Slipknot
Tuning - BF#BE

------------------------------------------------------|
------------------------------------------------------|
-6-------------------------6--------------------------|
---0--0-0--0-0-0--0-0-0--0----0--0-0--0-0-0--0-0-0--0-|

Chorus
------------------------------------------|
------------------------------------------|
------------------------------------------| x3
-1--0--1-0--1-0--1-0--1--0--1-0--1-0--1-0-|

Interlude
---------------------------------------------|
---------------------------------------------|
---------------------------------------------|
-1--0--0-1-0-5-4-8~-0-1--0--0-1-0-4-3---2--0-|

Verse
-----------------------------------------|
-----------------------------------------|
-----------------------------------------|
-1--0--0-1-0-5-4-9~-0-1--0--0-1-0-5-4-9~-|

------------------------------------------|
------------------------------------------|
------------------------------------------|
-1--0--00-1-0-5-4-8~-0-1-0--00-1-0-5-4-9~-|

Pre Chorus x2
--------------------------|
--------------------------|
--------------------------|
-1-0--0--0--00-1-0-5-4-8~-|

--------------------------|
--------------------------|
--------------------------|
-1-0--0--0--00-1-0-5-4-9~-|

Chorus x3
Verse
Pre Chorus x2

Bridge
----------------------------------|
----------------------------------|
----------------------------------| x4
-0--1--0--1--0--1--0--1--0-1--0-1-|

----------------------------------------|
----------------------------------------|
-5------5------5-------5------5-----5---|
----1------1-------1------1-----1-----1-|

---------------------------------------|
---------------------------------------|
---------------------------------------|
-8--0-0-0-0-0-1-1-0-9--0-0-0-0-0-1-1-0-|

-----------------------------------------|
-----------------------------------------|
-----------------------------------------|
-8--0-0-0-0-0-1-1-0-9--0-0-0--0-0--0-1-8~|

Outro
------------|
------------|
------------|
-2--1--0--1-|

---------------|
---------------|
---------------|
-2--1--0-0-0-2-|
Suggest correction
comments
print report bad tab
1 comment total.
0 reply
AnduNeedle 6,848 Jul 27, 2014 10:49 AM

Pretty good tab, but the song is different. I'll tab it later.

guest
You may want to rate the tab now too:
select rating
Wanna post a correction for this tab? Suggest correction