Oops, an error
Loading. Please wait.

Metabolic Bass Tab

version 1
version 1

Whole song

Interactive

1,312 views 1 this week
1 commentread comment
1 2 3 4 5
2 more votes to show rating
add to favorites
launch autoscroll
font size
0
reset
guitar tuner
Autoscroll
slow
fast
+/-
esc
set tempo
stop
Help us to improve Ultimate-Guitar.com Take our survey!
×
Band- Slipknot
Song- Metabolic

Tunning: B,E,A,D

Intro
D|----------------------|
A|----------------------|------|
E|-----6/7-----6/7-7\5--|      |
B|-000-----000----------|      |
                               |-----> Repeat this 3 times
D|-----------------|           |
A|-----------------|           |
E|-----6/7-----7\5-|-----------|
B|-000-----000-----|

Last Time
D|---------------------|
A|---------------------|
E|-----6/7-----6/7-7\5-|
B|-000-----000---------|

D|---------|
A|---------|
E|-----6/7-|
B|-000-----|

Intro II
D|---------------|
A|---------------|
E|------6/7-7\5--|
B|-0000----------|

Verse I
D|-----------------|
A|-----------------|
E|---------2---1---|x8
B|-3-2-1-0---0---1-|

play The intro once and then play the verse 8 times 

Pre - Chorus
D|---------|
A|---------|
E|---------|
B|-1-2-1-2-|

Chorus
D|------------------------|
A|------------------------|
E|-6^---------------------|x1
B|----4\3-5\4-6\5-7\6-7/8-|

D|-------------------------|
A|-------------------------|
E|-666---------------------|x2
B|-----4\3-5\4-6\5-7\6-7/8-|

D|-r-|---------------------|
A|-e-|---------------------|
E|-s-|---------------------|x1
B|-t-|-4\3-5\4-6\5-7\6-7/8-|

D|-------------------------|
A|-------------------------|
E|-------------------------|x4
B|-000-4\3-5\4-6\5-7\6-7/8-|

Pre - verse
D|----------|
A|----------|
E|----------|
B|-0000-12\-|

Verse II
D|---------------|
A|---------------|
E|------6/7-7\5--|x8
B|-0000----------|

D|------------------------------------------|
A|------------------------------------------|
E|---------------------6/7-7\5------6/7-7\5-|
B|-0000-0000-0000-0000---------0000---------|

Bridge I
D|-----------------------|
A|-----------------------|
E|-----------------------|x1
B|-000000--000000-000000-|

D|------------------------|
A|------------------------|
E|------------------------|x3
B|-00033322224441111/6666-|

D|-------------|
A|-------------|
E|-------------|x1
B|-00033322224-|

Heavy Bridge
D|----------------|
A|----------------|
E|----------------|x12
B|-00-3-2-4-1-3/6-|

Rest while Corey sings "for memories"

Then continue with this
D|-----------|
A|-----------|
E|-----------|x1
B|-2-4-1-3/6-|

D|----------------|
A|----------------|
E|----------------|x3
B|-00-3-2-4-1-3/6-|

Pre - Chorus II
D|----------------|
A|----------------|
E|----------------|
B|-00-00-0000-000-|

Last Chorus
D|---------------------|
A|---------------------|
E|---------------------|x1
B|-4\3-5\4-6\5-7\6-7/8-|

D|-------------------------|
A|-------------------------|
E|-666---------------------|x2
B|-----4\3-5\4-6\5-7\6-7/8-|

D|-r-|---------------------|
A|-e-|---------------------|
E|-s-|---------------------|x1
B|-t-|-4\3-5\4-6\5-7\6-7/8-|

D|-------------------------|
A|-------------------------|
E|-------------------------|x8
B|-000-4\3-5\4-6\5-7\6-7/8-|

Outro
D|----------------|
A|----------------|
E|----------------|x7
B|-00-3-2-4-1-3/6-|

D|------------|
A|------------|
E|------------|x1
B|-00-3-2-4-1-|
Suggest correction
Give kudos to tab author, rate the tab!
1 2 3 4 5
comments
print report bad tab
1 comment total.
0 reply
Pessimisticall 172 Apr 01, 2009 10:32 AM

Ahh Typing Class Is A Great Way To Get On Ug,
Anyways Perfect Tab

guest
You may want to rate the tab now too:
select rating
Wanna post a correction for this tab? Suggest correction