Oops, an error
Loading. Please wait.

My Plague Bass Tab

version 2
version 2

Whole song

1,632 views 6 this week
2 commentsread comments
1 2 3 4 5
please rate
add to favorites
launch autoscroll
font size
0
reset
guitar tuner
Autoscroll
slow
fast
+/-
esc
set tempo
stop
Help us to improve Ultimate-Guitar.com Take our survey!
×
Mxtabs [http://www.mxtabs.net]
Song: my Plague
Band : Slipknot
tabbed by modus operendi
jamie cushion

Mxtabs [http://www.mxtabs.net]
Intro AEADG
-------------------------|
-------------------------|
-------------------------|
-00-0-0---<1h2p1>--------|X7

Verse
---------------------|
---------------------|
---------------------|
-000-1-2/1-----------|X8

Chorus
----------------------------------------------------------|
----------------------------------------------------------|
------5---8----10~~---------------------------------------|
----0---0----0---------0-2-2-2-2-2-2-2-2/6-6-6-6-6-6-6-6--|X4

Interlude 1
------------------------------|
-----------------3--2---4-----|
-------4-3------------2---3---|
-0-3-2-------4-3--------------| x4

Interlude 2
---------------------------------------|
--------------2-3-2-0--4---------------|
---------------------2---3-------------|
-0-0-0-3-2-0---------------------------| x12

Outro chorus
----------------------------------------------------------|
----------------------------------------------------------|
------5---8----10-------2-2-2-2-2-2-2-2/6-6-6-6-6-6-6-6---|
----0---0----0---------0----------------------------------|x3

----------------------------------------------------------|
----------------------------------------------------------|
------5---8----10-----------------------------------------|
----0---0----0---------0-2-2-2-2-2-2-2-2/6-6-6-6-6-6-6-6--|x1

Outro 1                                          Outro 2
--------------------------        ---------------------------|
--------------------------        ---------------------------|
--------------------------        ---------------------------|
-0-0-0-0-0--01h2-2p1-------x4   -0-0-0-<1h2-2/1>-------------|x4
Suggest correction
Give kudos to tab author, rate the tab!
1 2 3 4 5
comments
print report bad tab
2 comments total.
0 reply
livinginmisery 80 wrote on May 23 2007, 01:42 pm

drop a holy shit

0 reply
xmari3nx 31 wrote on July 1 2008, 11:07 pm

lol

guest
You may want to rate the tab now too:
select rating
Wanna post a correction for this tab? Suggest correction