Oops, an error
Loading. Please wait.

Only One Bass Tab

version 3
version 3

Whole song

Interactive

263 views 1 this week
no commentswrite comment
1 2 3 4 5
please rate
add to favorites
launch autoscroll
font size
0
reset
guitar tuner
Tab Pro tools
  • play this tab
  • loop segment
  • change instrument
  • show fretboard
  • metronome
×
Best way to learn
"Only One"
Autoscroll
slow
fast
+/-
esc
set tempo
stop
Contributor
Difficulty
Tuning
intermediate
D G C F A D
Easy to play but it took me like an hour or something to get everything right
I had to transfer how I was playing it (completely wrong) in B standard, to D standard 
now
way better). One or two notes might be slightly off on the last 2 riffs because the 
are kinda bunched in and all so close together but it sounds spot on to me.

Tuning (as mentioned) = D standard (DGCF)

I'm not gonna put the order because I can't be bothered and if you can't even work that
yourself then I'm sorry but you're just flat out retarded.

Intro
|-----------------------------|
|-----------------------------|
|----3-2--------3--------3--2-|
|-0-------3--2-----3--2-------|

Verse
|----------------------------|
|----8-7--------6--5-4-------|
|-7-------6--5----------5--4-|
|----------------------------|

Bridge thing
|------------|
|------------|
|------------|
|-00--0-5h6--|

Pre chorus thing
|----------------|-----------------|
|--------2p0-----|-----------------|
|----------------|-----------------|
|-1-0--0-----1-0-|-1-0-0-1-3-1-1-0-|

Chorus
|-----------------|
|-----------------|
|-----------------|
|-1p0-0h1-3p1-0h1-| then it just ends on 2 open notes.
comments
We did not receive enough feedback on this tab! Please rate:
print report bad tab
1 2 3 4 5
I want to post or [tab]
guest
You may want to rate the tab now too:
select rating
Please do not post tabs as comments. Select "correction" instead!