Oops, an error
Loading. Please wait.

People Shit Bass Tab

version 3
version 3

Whole song

Interactive

4,453 views 9 this week
no commentswrite comment
1 2 3 4 5
2 more votes to show rating
add to favorites
launch autoscroll
font size
0
reset
guitar tuner
Autoscroll
slow
fast
+/-
esc
set tempo
stop
Help us to improve Ultimate-Guitar.com Take our survey!
×
D|-------------------------------|x1
A|-------------------------------|
E|-------------------------------|
A|6-5-0-0-3-1-0-0-6-5-0-0-3-1-0-0|

D|-------|x1
A|-------|
E|-------|
A|0-0-0-0|

D|---------------------------------------------------------------|x4
A|---------------------------------------------------------------|
E|--------------------------------2-2-2-2-3-3-3-3---------2-2-2-2|
A|0-0-0-0-1-1-1-1-0-0-0-0-1-1-1-1-----------------3-3-3-3--------|

D|-------|x1
A|-------|
E|-------|
A|0-0-0-0|

D|---------------------------|x1
A|---------------------------|
E|----------------5-5-3-5-5-5|
A|0--0-0-0-0-0-0-0-----------|

D|---------------------|x8
A|---------------------|
E|---------------------|
A|0-1-1-0-1--0-1-1-0-5^|
(tricky rhythhm)
D|--------------------------------------------|x4
A|--------------------------------------------|
E|--------------------------------------------|
A|0-1-1-0-1--0-0-3--3--0-0-1--0-0-3-3--0-0-6-5|

D|----------------------------------------------------------------|x1
A|----------------------------------------------------------------|
E|5555555555555555555555555555555566666666666666662222222211111111|
A|----------------------------------------------------------------|
(those are Thriteens.)
D|-------------------------------------------------------|x1
A|-------------------------------------------------------|
E|5-------5--------5-------5------666666666666666613(x16)|
A|-------------------------------------------------------|

D|---------------------|x4
A|---------------------|
E|---------------------|
A|0-1-1-0-1--0-1-1-0-5^|
(tricky rhythm)(not the same as the other verse, little variation)
D|--------------------------------------------|x1
A|--------------------------------------------|
E|--------------------------------------------|
A|0-1-1-0-1---0-0-3---0-0-1---0-0-3---0-0-6--5|

D|--------------------------------------|x1
A|--------------------------------------|
E|--------------------------------------|
A|0-1-1-0-1---0-0-3---0-0-1-------------|

D|---------------------|x4
A|---------------------|
E|---------------------|
A|0-1-1-0-1--0-1-1-0-5^|

D|----------------------------------------------------------------|x1
A|----------------------------------------------------------------|
E|5555555555555555555555555555555566666666666666662222222211111111|
A|----------------------------------------------------------------|
(those are Thriteens.)
D|-------------------------------------------------------|x1
A|-------------------------------------------------------|
E|5-------5--------5-------5------666666666666666613(x16)|
A|-------------------------------------------------------|
(hint: what is below is the chorus)
D|-------------------|x8
A|-------------------|
E|-0---1---------0---|
A|---0---1-1-4-4-----|

Rest from 1:58-2:14


D|--------------------------------------|x7
A|--------------------------------------|
E|--------------------------------------|
A|1-1--1-1--1-1--2-2--1-1--1-1--2-2--4-4|
(hit the opens at [2:42, 2:44, 2:46, and 2:48])
D|-|x4
A|-|
E|-|
A|0|
(hint: this isnt the chorus, but its the chorus riff)
D|-------------------|x4
A|-------------------|
E|-0---1---------0---|
A|---0---1-1-4-4-----|
(HERE!! is where corey screams "people = shit!" by himself.. then play wat is below)



D|-------------------|x12
A|-------------------|
E|-0---1---------0---|         <<< now its the final chorus
A|---0---1-1-4-4-----|

D|-------------------------------|x1
A|-------------------------------|
E|-------------------------------|
A|6-5-0-0-3-1-0-0-6-5-0-0-3-1-0-0

D|------|x1
A|------|
E|------|
A|0-0--0|



song is over. 


Stay (SIC)



check out my other tabs.


any questions leave a comment ( i dont chekc my email )


This is 100% correct
A|0-0--0|
Suggest correction
Give kudos to tab author, rate the tab!
1 2 3 4 5
comments
print report bad tab
guest
You may want to rate the tab now too:
select rating
Wanna post a correction for this tab? Suggest correction