Oops, an error
Loading. Please wait.

Prelude 3 0 Bass Tab

version 2
version 2

Whole song

308 views 6 this week
no commentswrite comment
1 2 3 4 5
please rate
add to favorites
launch autoscroll
font size
0
reset
guitar tuner
Autoscroll
slow
fast
+/-
esc
set tempo
stop
Help us to improve Ultimate-Guitar.com Take our survey!
×
Author
Tabbed By: rahkshinaw
youtube.com/user/rahkshinaw
esrock.net

Tuning: Standard

riff1: 8x
G|-------------------|   5x      
D|-------------------|   8x    
A|-----3----5-------2| 
E|5------------------|

riff 2: 4x
G|----------------|   4x
D|----------------|
A|3-5-------------|
E|-------333-5----|          

riff 3: 4x
G|-------------------|   4x      
D|-------------------|
A|-----3----5--------|
E|5------------------|

riff 4:  4x 
G|------------------|   4x    
D|------------------|
A|3-5---------------|
E|---------333-5----|

riff 5:  4x
G|------------------|   4x     
D|------------------|  
A|3-5---------------|   
E|---------333-5----|   
Suggest correction
Give kudos to tab author, rate the tab!
1 2 3 4 5
comments
print report bad tab
guest
You may want to rate the tab now too:
select rating
Wanna post a correction for this tab? Suggest correction