Oops, an error
Loading. Please wait.

Prosthetics Tab

version 2
version 2

Whole song

Interactive

3,477 views 3 this week
3 commentsread comments
1 2 3 4 5
excellent!
x 5
add to favorites
launch autoscroll
font size
0
reset
how to read this tab
guitar tuner
Tab Pro tools
  • play this tab
  • loop segment
  • change instrument
  • show fretboard
  • metronome
×
Best way to learn
"Prosthetics"
Autoscroll
slow
fast
+/-
esc
set tempo
stop
Contributor
-------------------------------------------------------------------------------
     Prosthetics - Slipknot
-------------------------------------------------------------------------------
Tabbed by:thezohan
Email:

Tuning:Drop B (B,F#,B,E,G#,C#)
This is one of Slipknot's most impressive songs. I sat down and figured this
song out and played with it for 30 minutes. I'm pretty sure it's right.

 Intro gtr. 1  (some sort of flanger effect)
C#|----------------------------------------------------------------|
G#|----------------------------------------------------------------|
E |----------------------------------------------------------------|
B |-8-7-7--7-6-6--6-7-7--0-6-6------8-7-7--7-6-6--6-7-7--0-6-6-----|
F#|----------------------------------------------------------------|
B |-8-7-7--7-6-6--6-7-7--0-6-6------8-7-7--7-6-6--6-7-7--0-6-6-----|

 Intro gtr. 2
C#|-17--17--17--17--17--17--17--17---18--18--18--18--18--18--18--18----|
G#|---15--15--15--15--15--15--15--15---14--14--14--14--14--14--14--14--|
E |--------------------------------------------------------------------|
B |--------------------------------------------------------------------|
F#|--------------------------------------------------------------------|
B |--------------------------------------------------------------------|

 intro 2 *all guitars*  
C#|----17~------18~------17~------18~-----------------|
G#|-15-15~---14-14~---15-15~---14-14~-----------------|
E |---------------------------------------------------|
B |---------------------------------------------------|
F#|---------------------------------------------------|
B |---------------------------------------------------|

Verse 1  Gtr. 1   *Flanger*
C#|--------------------------------------|
G#|--------------------------------------|
E |--------------------------------------|
B |-7~~-----8~~-------------8~~----------|
F#|-5~~-----4~~-----0~~-----4~~----------|
B |-----------------0~~------------------|

Verse 1  Gtr. 2
C#|-------------------------------------------------------------------------|
G#|-------------------------------------------------------------------------|
E |-------------------------------------------------------------------------|
B |-------------------------------------------------------------------------|
F#|-5-5-5-5-5-5-5-5-5-5-5-5-5-5-5-5-4-4-4-4-4-4-4-4-4-4-4-4-4-4-4-4---------|
B |-----------------------------------------------------------------0-0-0-0-|
    X X X X X X X X X X X X X X X X X X X X X X X X X X X X X X X X X X X X    

(Continued)
C#|----------------------------------------------------------|
G#|----------------------------------------------------------|
E |----------------------------------------------------------|
B |----------------------------------------------------------|
F#|-------------------------4-4-4-4-4-4-4-4-4-4-4-4-4-4-4-4--|
B |-0-0-0-0-0-0-0-0-0-0-0-0----------------------------------|
    X X X X X X X X X X X X X X X X X X X X X X X X X X X X 

 Bridge
C#|--------------------------------------------------|
G#|--------------------------------------------------|
E |--------------------------------------------------|
B |--------------------------------------------------|
F#|-0--00-1-0-0--00-1-0-1--00-1-0-0--00-1-0-0--------|
B |-0--00-1-0-0--00-1-0-1--00-1-0-0--00-1-0-0--------|
  Chorus *Rhythm Gtr.*
C#|--------------------------------------------------------|
G#|--------------------------------------------------------|
E |--------------------------------------------------------|
B |--------------------------------------------------------|
F#|-8-7--1-2-2h3-3-3-3-4-3-4--8-7--1-2-2h3-3-3-3-4-3-4-----|
B |-8-7--1-2-2h3-3-3-3-4-3-4--8-7--1-2-2h3-3-3-3-4-3-4-----|

 Chorus *Lead Gtr.*
C#|----------------------------------|
G#|----------------------------------|
E |-15-14--8-9-9h10--10-10-10~-------|
B |----------------------------------|
F#|-13-12--6-7-7h8---8--8--8~~-------|
B |----------------------------------|

 Verse 2  *Lead Gtr*  w/wah pedal
C#|-17--17--17--17--17--17--17--17--18--18--18--18--18--18--18--18-----|
G#|---15--15--15--15--15--15--15--15--14--14--14--14--14--14--14--14---|
E |--------------------------------------------------------------------|
B |--------------------------------------------------------------------|
F#|--------------------------------------------------------------------|
B |--------------------------------------------------------------------|

 Verse 2 *Rhythm Gtr* w/ Flanger
C#|---------------------------------------------------------------------------|
G#|---------------------------------------------------------------------------|
E |---------------------------------------------------------------------------|
B |-7-777-7-7-777-7--8-888-8-8-888-8--7-777-7-7-777-7-8-888-8-8-888-8---------|
F#|-5-555-5-5-555-5--4-444-4-4-444-4--5-555-5-5-555-5-4-444-4-4-444-4---------|
B |---------------------------------------------------------------------------|

 Bridge 2      (listen to the song for the timing)
C#|---------------------------------------------------------|
G#|--------14b18---------13b17--------14b18---------13b17---|
E |-11b13--------10b12----------11b13--------10b12----------|
B |---------------------------------------------------------|
F#|---------------------------------------------------------|
B |---------------------------------------------------------|

 Bridge 3 *Lead Gtr*
C#|---------------------------------------------------------------------------|
G#|-7878787878787878787878787878787878787878787878787878787878787878787878----|
E |---------------------------------------------------------------------------|
B |---------------------------------------------------------------------------|
F#|---------------------------------------------------------------------------|
B |---------------------------------------------------------------------------|
Bridge *Rhythm Gtr*
C#|---------------------------------------------------------------------------|
G#|---------------------------------------------------------------------------|
E |---------------------------------------------------------------------------|
B |---------------------------------------------------------------------------|
F#|-3-2-0-2-1-0-1-2-3-2-0-2-1-0-1-2-3-2-0-2-1-0-1-2-3-2-0-2-1-0-1-2-----------|
B |-3-2-0-2-1-0-1-2-3-2-0-2-1-0-1-2-3-2-0-2-1-0-1-2-3-2-0-2-1-0-1-2-----------|
Outro        (something like this it’s hard to tell)
C#|----------------------------------------|
G#|----------------------------------------|
E |----------------------------------------|
B |----------------------------------------|
F#|-6~--5~--6~--6~--7~--5~--6~-------------|
B |-6~--5~--6~--6~--7~--5~--6~-------------|

| /  slide up
| \  slide down
| h  hammer-on
| p  pull-off
| ~  vibrato
| +  harmonic
| x  Mute note
===============================================================================
comments
print report bad tab
3 comments total.
+1 reply
rongold360 wrote on May 16 2009, 11:38 am

this tab sucks! jk.... good job bro!
-rongold360

0 reply
thezohan wrote on May 17 2009, 10:13 am

thanks. I figured it all out by ear!

0 reply
Hyks97 wrote on January 24 2013, 10:25 am

The chorus part is wrong.

Goes like this.


C#|--------------------------------------------------------|
G#|--------------------------------------------------------|
E |--------------------------------------------------------|
B |--------------------------------------------------------|
F#|-8-7--0-1-1h3-3-3-3-4-3-4--8-7--0-1-1h3-3-3-3-4-3-4-----|
B |-8-7--0-1-1h3-3-3-3-4-3-4--8-7--0-1-1h3-3-3-3-4-3-4-----|

I want to post or [tab]
guest
You may want to rate the tab now too:
select rating
Please do not post tabs as comments. Select "correction" instead!