Oops, an error
Loading. Please wait.

Prosthetics tab

version 3
version 3

Whole song

Interactive

37 views 3 this week
no commentswrite comment
1 2 3 4 5
2 more votes to show rating
add to favorites
×
Save as Personal and add changes to this tab that will be seen only by you. Learn more ›
×
You can save this tab as Personal to edit and correct it or add notes. All changes will be seen only by you. Learn more »
launch autoscroll
font size
0
reset
how to read this tab
guitar tuner
edit
Autoscroll
slow
fast
+/-
esc
set tempo
stop
About this tab version
Made HUGE changes to intro, Pre-Verse, and Verse. Was this info helpful? Yes No
Song: Prosthetics
Artist: Slipknot
Tuning: Drop B

Yes I am 100% positive this is the right intro to the 
song. Don't believe me? Type in "Prosthetics live Dynamo 2000"
and skip to 0:55, and watch Mick. Yes indeed, this is correct.

[Intro] (Guitar 1 w/flanger)
                    x7                x5                                      x7
db|--------|--------|--------|--------|------------------------------|--------|
Ab|--------|--------|--------|--------|------------------------------|--------|
 E|--------|--------|--------|--------|------------------------------|--------|
 B|--------|--------|--------|--------|-7--6-------------------------|--------|
Gb|-7-----7|-------7|-7-----7|-------7|-------7----------7----7-----7|-------7|
 B|----6---|-7--6---|----6---|-7--6---|------------7--6----------6---|-7--6---|

                    x7                x7
db|--------|--------|--------|--------|
Ab|--------|--------|--------|--------|
 E|--------|--------|--------|--------|
 B|--------|--------|--------|--------|
Gb|-7-----7|-------7|-7-----7|-------7|
 B|----6---|-7--6---|----6---|-7--6---|


[Intro] (Guitar 2)

db|-17--17--17--17--17--17--17--17--18--18--18--18--18--18--18--18--|
Ab|---15--15--15--15--15--15--15--15--14--14--14--14--14--14--14--14|
 E|-----------------------------------------------------------------| Repeat through out
 B|-----------------------------------------------------------------|
Gb|-----------------------------------------------------------------|
 B|-----------------------------------------------------------------|


[Pre-Verse 1] (Guitar 2 ONLY) 
 
db|----17~------18~|
Ab|-15-------14----|
 E|----------------| x2
 B|----------------|
Gb|----------------|
 B|----------------|


[Pre-Verse 2] (Guitar 1 w/Flanger)

db|-------------------------------|
Ab|-------------------------------|
 E|-------------------------------| 
 B|-------------------------------|
Gb|----5~------4~------5~------11~|
 B|-0-------4-------0-------11----|


[Pre-Verse 2] (Guitar 2)

db|----17~------18~|
Ab|-15-------14----|
 E|----------------| x2
 B|----------------|
Gb|----------------|
 B|----------------|


[Verse] (Guitar 1)

db|----------------|
Ab|-10~------13/14~|
 E|-13b~-----13/14~| x4
 B|----------------|
Gb|----------------|
 B|----------------|


[Verse] (Guitar 2)

db|----------------------------------------------------------------|
Ab|----------------------------------------------------------------|
 E|----------------------------------------------------------------| x4
 B|----------------------------------------------------------------|
Gb|-5-5-5-5-5-5-5-5-5-5-5-5-5-5-5-5-4-4-4-4-4-4-4-4-4-4-4-4-4-4-4-4|
 B|----------------------------------------------------------------|
    . . . . . . . . . . . . . . . . . . . . . . . . . . . . . . . . 


[Pre-Chorus] (Both Guitars)

db|------------------------------------------------------|
Ab|------------------------------------------------------|
 E|------------------------------------------------------| x4
 B|------------------------------------------------------|
Gb|-0------1-0--0---------1-0--1--------1-0--1--------1-0|
 B|-0--0-0-1-0--0----0-0--1-0--1----0-0-1-0--1----0-0-1-0|
       . .           . .            . .           . .


[Chorus] (Guitar 1)

db|-----------------------------|
Ab|-----------------------------|
 E|-----------------------------| x8
 B|-0-8-7--1/2-2-2-2/3-3-3-3-4--|
Gb|-0-8-7--1/2-2-2-2/3-3-3-3-4-3|
 B|-0-8-7--1/2-2-2-2/3-3-3-3-4-3|


[Chorus] (Guitar 2)

db|-----------------------------|
Ab|-----------------------------|
 E|-----------------------------| x4
 B|-0-8-7--1/2-2-2-2/3-3-3-3-4--|
Gb|-0-8-7--1/2-2-2-2/3-3-3-3-4-3|
 B|-0-8-7--1/2-2-2-2/3-3-3-3-4-3|

db|----------------------------------|
Ab|----------------------------------|
 E|-15-14--8/9-9---9/10-10---10/11-10| x4
 B|----------------------------------|
Gb|-13-12--6/7-7---7/8--8-----8/9--8-|
 B|----------------------------------|


[Verse 2] (Guitar 1)

db|------------------------------------------------------|
Ab|------------------------------------------------------|
 E|------------------------------------------------------| x4
 B|------------------------------------------------------|
Gb|-0------1-0--0---------1-0--1--------1-0--1--------1-0|
 B|-0--0-0-1-0--0----0-0--1-0--1----0-0-1-0--1----0-0-1-0|
       . .           . .            . .           . .


[Verse 2] (Guitar 2)

db|-17--17--17--17--17--17--17--17--18--18--18--18--18--18--18--18--|
Ab|---15--15--15--15--15--15--15--15--14--14--14--14--14--14--14--14|
 E|-----------------------------------------------------------------| x4
 B|-----------------------------------------------------------------|
Gb|-----------------------------------------------------------------|
 B|-----------------------------------------------------------------|


[Bridge] (Guitar 1)

db|-<3b>-|
Ab|------|
 E|------| x4
 B|------|
Gb|------|
 B|------|

db|-3h6-|
Ab|-----|
 E|-----| x192
 B|-----|
Gb|-----|
 B|-----|
 
db|-----------------|
Ab|-----------------|
 E|-----------------| x16
 B|-----------------|
Gb|-3-2-1-2-1-0-1-2-|
 B|-3-2-1-2-1-0-1-2-|


[Bridge] (Guitar 2)

db|----------------|
Ab|----------------|
 E|----------------| x40
 B|----------------|
Gb|-3-2-1-2-1-0-1-2|
 B|-3-2-1-2-1-0-1-2|


[Outro] (ONLY Guitar 1 w/Flanger)

db|----------------------------------------|
Ab|----------------------------------------|
 E|----------------------------------------|
 B|----------------------------------------|
Gb|-6~--5~--6~--6~--7~--5~--6~-------------|
 B|-6~--5~--6~--6~--7~--5~--6~-------------|



************************************

| h  Hammer-on
| b  Bend
| /  Slide up
| ~  Vibrato

************************************
Suggest correction
Creating personal tab
Creating personal tab
You can edit any tab online and save it as your Personal.

You can edit, replace or remove any tab part or add personal notes – all changes will be seen only by you.

Personal tabs can be accessed anytime from any device, even offline.
Learn more »
Give kudos to tab author, rate the tab!
1 2 3 4 5
comments
print report bad tab
guest
You may want to rate the tab now too:
select rating
Wanna post a correction for this tab? Suggest correction