Oops, an error
Loading. Please wait.

Psychosocial Bass Tab

version 1
version 1
224,735 views 105 this week
36 commentsread comments
1 2 3 4 5
x 42
add to favorites
launch autoscroll
font size
0
reset
guitar tuner
Autoscroll
slow
fast
+/-
esc
set tempo
stop
Help us to improve Ultimate-Guitar.com Take our survey!
×
Author
Difficulty
Tuning
intermediate
A E A D F# B
Psychosocial - Slipknot
I tabbed this song in Drop A, you can try it in Drop B (BEAD) and see what sounds right
you. The guitars are tuned down to A.
Tuning: Drop A (AEAD)


[Intro] (Not sure about this bit, but you can play it and see) This part is after the riff Mick pulls:
D|---------------------------------------------------------------------------|
A|---------------------------------------------------------------------------|
E|----------6b-------------6-6-6-6-7-7-7-7-9-9-9-9-8-8-8-8-------------------|
A|0--0-0-0-----0--3h5--0-0---------------------------------------------------|

D|---------------------------------------------------------------------------|
A|---------------------------------------------------------------------------|
E|6-6-6-6-7-7-7-7-9-9-9-9-8-8-8-8--6-6-6-6-7-7-7-7-8-8-8-8-------------------|
A|---------------------------------------------------------------------------|

G|----------------------------------------------|
D|----------------------------------------------|
A|-6-6-6-6-7-7-7-7-9-9-9-9-8-8-8-8--12\---------|
E|----------------------------------------------|


[Verse]

D|-----------------|
A|-----------------|x4
E|-----------------|
A|6-0-0-5-0-0-5h6--|

Then:
D|-----------------|
A|-----------------|
E|-----------------|
A|6-5-3-0-3-5-3-2--|

The guitars do this quick riff here, I don't know if the bass goes along with it:
D|-----------------|
A|-----------------|
E|-----------------|
A|6p5-0-0-5h6------|


[Chorus]

D|---------------------------------------------------------------------------|
A|---------------------------------------------------------------------------|
E|---------------------1--1-1----------------3--3-3-6--6-6-------------------|
A|6-6-6-6-6-6-6-1--1-1--------5--5-5-5-5-5-5---------------------------------|

D|---------------------------------------------------------------------------|
A|---------------------------------------------------------------------------|
E|---------------------1--1-1------------------------------------------------|
A|6-6-6-6-6-6-6-1--1-1--------5--5-5-5-5-5-5--------0--12\-------------------|


[Solo] (Part one):
D|-----------------|
A|-----------------|x4
E|-----------------|
A|6-0-0-5-0-0-5h6--|

D|-----------------|
A|-----------------|
E|-----------------|
A|6-5-3-0-3-5-3-2--|


[Solo] (Part two):
D|---------------------------------------------------------------------------|
A|---------------------------------------------------------------------------|
E|---------------------1--1-1----------------3--3-3-6--6-6-------------------|
A|6-6-6-6-6-6-6-1--1-1--------5--5-5-5-5-5-5---------------------------------|

D|---------------------------------------------------------------------------|
A|---------------------------------------------------------------------------|
E|---------------------1--1-1------------------------------------------------|
A|6-6-6-6-6-6-6-1--1-1--------5--5-5-5-5-5-5-5-5-5-5-5-5-5-------------------|


[Break]

D|---------------------------------------------------------------------------|
A|---------------------------------------------------------------------------|
E|---------------------------------------------------------------------------|
A|0-0-0---0-0-0---0-0-0----0-0-0---0-0-0---0-0-0-----------------------------|

D|---------------------------------------------------------------------------|
A|---------------------------------------------------------------------------|
E|---------------------------------------------------------------------------|
A|0-0-0--0-0-0----0-0-0----0-0-0--0-0-0----0-0-0--0--12\---------------------|

**in the album version there is this bit**
D|-------------------------------------------|
A|-------------------------------------------|
E|-------------------------------------------|
A|-0--6--3--0--0-0-0-0-3--2------------------|


[Final Chorus]

D|---------------------------------------------------------------------------|
A|---------------------------------------------------------------------------|x3
E|---------------------1--1-1----------------3--3-3-6--6-6-------------------|
A|6-6-6-6-6-6-6-1--1-1--------5--5-5-5-5-5-5---------------------------------|

D|---------------------------------------------------------------------------|
A|---------------------------------------------------------------------------|
E|---------------------1--1-1------------------------------------------------|
A|6-6-6-6-6-6-6-1--1-1--------5--5-5-5-5-5-5-5-5-5-5-5-5-5-------------------|


[Outro]

D|---------------------------------------------------------------------------|
A|---------------------------------------------------------------------------|
E|---------------------------------------------------------------------------|
A|0-0--0-0-0--0-0--0-0-0--0-0--3--2------------------------------------------|

D|---------------------------------------------------------------------------|
A|---------------------------------------------------------------------------|
E|---------------------------------------------------------------------------|
A|0-0--0-0-0--0-0--0-0-0--0-0--0--0------------------------------------------|

Ok, there's the gist of it. Rhythm you can figure out for yourself. If you're smart
to make corrections; you don't need my help, do you?


************************************

| h  Hammer-on
| p  Pull-off
| b  Bend
| \  Slide down

************************************
Suggest correction
comments
print report bad tab
36 comments total. Showing first comments.
+3 reply
thesickness09 40 Jul 08, 2008 04:46 PM

great tab

0 reply
ToolFtW 31 Aug 08, 2008 12:43 AM

doesnt sound right

0 reply
execution_666 365 Aug 08, 2008 01:14 AM

I might have to re do it.

guest
You may want to rate the tab now too:
select rating
Wanna post a correction for this tab? Suggest correction