Oops, an error
Loading. Please wait.
We have an official Psychosocial tab made by UG professional guitarists. Check out the tab »
×

Psychosocial solo tab

version 5
version 5

Solo

Whole song

331 views 3 this week
no commentswrite comment
1 2 3 4 5
3 more votes to show rating
add to favorites
×
Save as Personal and add changes to this tab that will be seen only by you. Learn more ›
×
You can save this tab as Personal to edit and correct it or add notes. All changes will be seen only by you. Learn more »
launch autoscroll
font size
0
reset
how to read this tab
guitar tuner
backing track
0:00
0:00
edit
Autoscroll
slow
fast
+/-
esc
set tempo
stop
About this tab version
This version is clear, almost 100 percent right and also tell you the tuning. Was this info helpful? Yes No
Hey Guys! This is my first ever tab, so please be honest in the comments. I hope it helps you a bit.

NOTE: When I put F of the tab, I mean F sharp, but I can't do hashtags on this!

B|---------------------------------------------------------------------|
F|---------------------------------------------------------------------|
D|----------------------------------7-8-10--------7-8-20---------------|
A|--------5-7-8-8-7-5--------7-8-10--------7-8-10----------------------|
E|--5-7-8--------------8-7-5-------------------------------------------|
A|---------------------------------------------------------------------|

B|-----------------------------------------------------------------------|
F|-----------------------------------------------------------------------|
D|----------8-10-12-12-10-8------------------10-12-13----------10-12-13--|
A|--8-10-12-----------------12-10-8-10-12-13----------10-12-13-----------|
E|-----------------------------------------------------------------------|
A|-----------------------------------------------------------------------|

B|------------------------------------------------------------------------|
F|------------------------------------------------------------------------|
D|-----------12-13-15-15-13-12----------------13-14-17----------13-15-17--|
A|--12-13-15-------------------15-13-12-15-17----------13-15-17-----------|
E|------------------------------------------------------------------------|
A|------------------------------------------------------------------------|

B|------------------------------------------------------------------------------|
F|------------------------------------------------------------------------------|
D|-----------15-17-19-19-17-15----------------------17-19-20----------17-19-20--|
A|--15-17-19-------------------19-17-15-19-17-19-20----------17-19-20-----------|
E|------------------------------------------------------------------------------|
A|------------------------------------------------------------------------------|

B|----------------------------------------|
F|----------------------------------------|
D|---------------------20-----------------|
A|--19-19h20-19-19-20-----20-19-17-19-20--|
E|----------------------------------------|
A|----------------------------------------|

B|--------------------------------------|
F|--------------------------------------|
D|--19----------------------------------|
A|-----17-18-17-------------------------|
E|-------------17-18-17-18-17-15-13-15--|
A|--------------------------------------|

B|------------------------------------------------------------------------|
F|------------------------------------------------------------------------|
D|--22-20-19-20-19-20-15-17-20-19-20-19-20-19-17-19-20-19-19-17-19-22-19--|
A|------------------------------------------------------------------------|
E|------------------------------------------------------------------------|
A|------------------------------------------------------------------------|

B|-------------------------------------------------------------------|
F|-------------------------------------------------------------------|
D|-------------------------------------------------------------------|
A|------------------------------------------9-10-12---------9-10-12--|
E|----------8-10-12-12-10-8---------8-10-12---------8-10-12----------|
A|--8-10-12-----------------12-10-8----------------------------------|

B|-------------------------------------------------------------------|
F|-------------------------------------------------------------------|
D|-------------------------------------------------------------------|
A|--12-10-9---------12-10-9------------------------------------------|
E|----------12-10-8---------12-10-8---------8-10-12-12-10-8----------|
A|----------------------------------8-10-12-----------------12-10-5--|

B|------------------------------------------------------------------|
F|--20-20-----------------------------------------------------------|
D|--------20-20-19-20-19-17-19--------------------------------------|
A|-----------------------------17-18-17-15-17-----------------------|
E|--------------------------------------------18-18-17-18-17-15-17--|
A|------------------------------------------------------------------|

************************************

| h  Hammer-on

************************************

            
            
Suggest correction
Creating personal tab
Creating personal tab
You can edit any tab online and save it as your Personal.

You can edit, replace or remove any tab part or add personal notes – all changes will be seen only by you.

Personal tabs can be accessed anytime from any device, even offline.
Learn more »
Give kudos to tab author, rate the tab!
1 2 3 4 5
comments
print report bad tab
guest
You may want to rate the tab now too:
select rating
Wanna post a correction for this tab? Suggest correction