Oops, an error
Loading. Please wait.

Psychosocial Bass Tab

version 2
version 2
21,330 views 6 this week
8 commentsread comments
1 2 3 4 5
worth learning
x 6
add to favorites
launch autoscroll
font size
0
reset
guitar tuner
Autoscroll
slow
fast
+/-
esc
set tempo
stop
Help us to improve Ultimate-Guitar.com Take our survey!
×
Difficulty
Tuning
intermediate
A E A D F# B
i looked at one of the tabs for this song and didnt think it was right is i had a go 
please comment on what u think

this all sounds right to me u might find it different just let me no and ill see what i can do


Intro opens with guitar wait till everything else joins in
E|-----------------------------------------------------------------------------|
B|-----------------------------------------------------------------------------|
F|----------6b------------3-3-3-3-5-5-5-5-7-7-7-7-9-9-9-9----------------------|
B|0--0-0-0-----0--3h5--0-0-----------------------------------------------------|

E|------------------------|
B|------------------------| X3
F|----------6b------------|
B|0—-0-0-0-----0—-3h5—-0-0|

G|----------------|
D|----------------| X4
A|3333555577779999|
E|----------------|

Verse:
D|-------------|
A|-------------| x3
E|-------------|
A|5-0-6-0-0-0-0|
Then:
D|--------|
A|--------|
E|--------|
A|11223344|

Chorus:
D|---------------------------|
A|---------------------------| X4
E|---------------------1--1-1|
A|6-6-6-6-6-6-6-1--1-1-------|

Verse
Chorus

Solo (Part one): Repeat Verse twice

Solo (Part two):
D|-------------------------------|
A|-------------------------------| X4
E|-------------------------------|
A|6-6-6-6-6-6-6-6-1-1-1-1-1-1-1-1|

Break:
D|---------------------------------------------------------------------------|
A|---------------------------------------------------------------------------|
E|---------------------------------------------------------------------------|
A|0-0-0---0-0-0---0-0-0----0-0-0---0-0-0---0-0-0-----------------------------|

D|---------------------------------------------------------------------------|
A|---------------------------------------------------------------------------|
E|---------------------------------------------------------------------------|
A|0-0-0--0-0-0----0-0-0----0-0-0--0-0-0----0-0-0--0--12\---------------------|

Repeat verse twice for the last time

Final Chorus
D|---------------------------|
A|---------------------------| X8
E|---------------------1--1-1|
A|6-6-6-6-6-6-6-1--1-1-------|

Outro:
D|---------------------------------------------------------------------------|
A|---------------------------------------------------------------------------|X3
E|---------------------------------------------------------------------------|
A|0-0--0-0-0--0-0--0-0-0--0-0--3--2------------------------------------------|

D|---------------------------------------------------------------------------|
A|---------------------------------------------------------------------------|
E|---------------------------------------------------------------------------|
A|0-0--0-0-0--0-0--0-0-0--0-0--0--0------------------------------------------|
Suggest correction
What's this?
You can suggest a correction to this tab. Community and Mods will review your correction and vote to approve or reject it.
comments
print report bad tab
8 comments total. Showing first comments.
0 reply
execution_666 429 wrote on October 22 2008, 01:44 pm

This looks JUST like another one on here... for some reason.

0 reply
arrell 313 wrote on October 22 2008, 05:11 pm

What the heck... this isn't the tab I uploaded.

0 reply
Till From Kenig 455 wrote on October 26 2008, 04:10 pm

fixed

guest
You may want to rate the tab now too:
select rating
Please do not post tabs as comments. Select "correction" instead!