Oops, an error
Loading. Please wait.

Psychosocial Bass Tab

version 4
version 4
22,779 views 39 this week
1 commentread comment
1 2 3 4 5
x 8
add to favorites
launch autoscroll
font size
0
reset
guitar tuner
Autoscroll
slow
fast
+/-
esc
set tempo
stop
Help us to improve Ultimate-Guitar.com Take our survey!
×
Author
Difficulty
Tuning
intermediate
A E A D F# B
Artist:Slipknot
Album:All hope is gone
Bassist: Paul Grey (R.I.P)
Tuning:5 string AEADG or 4 string AEAD
Tabber:V.S.Bassist


I'm not going to lie. I got this out of a guitar world mag. I thought everyone 
would to play it like the late Paul Grey. Enjoy.

Intro
|-----------------|
|-----------------|
|-----------------|
|-0---------0-3/5-|

|-------------------------------|
|-----6-------------------------|
|-------------------------------|
|-0500-0-3/500-5555666688887777-|

|--------------------------------------------|
|--------6--------------6-----------6--------|
|--------------------------------------------|
|-00-5000-0-3/5000000500-0-3/5-0-500-0-3/500-|

|------------------|         |---------------|
|------------------|         |---------------| * means tremblo Picking
|------------------| 3x then |---------------|
|-5555666688887777-|         |-5*-8*7*-6*-87-|

Verse riff I
|-------------------------------------------------|
|-------------------------------------------------|
|-------------------------------------------------| 2x
|-6-00-5-00-56-6-00-5-00-56-6-00-5-00-56-65303532-|

Verse riff II
|---------------------------------------------|
|---------------------------------------------|
|---------------------------------------------|
|-65-00-56-6-00-5-00-56-6-00-5-00-56-65303532-|

Verse riff I
|-------------------------------------------------|
|-------------------------------------------------|
|-------------------------------------------------| 3x
|-6-00-5-00-56-6-00-5-00-56-6-00-5-00-56-65303532-|

Chorus
|------------------------------------------------|
|------------------------------------------------|
|------------------------------------------------|
|-66666601-1-0-8--8-0-5--5555555-10-1010/13-1313-|

|----------------------------|
|----------------------------|
|----------------------------|
|-6-6666601-1/8-805-55550865-|

|-----|
|-----|
|-----|
|-035-|

Verse riff I
|-------------------------------------------------|
|-------------------------------------------------|
|-------------------------------------------------| 2x
|-6-00-5-00-56-6-00-5-00-56-6-00-5-00-56-65303532-|

Verse riff II
|---------------------------------------------|
|---------------------------------------------|
|---------------------------------------------|
|-65-00-56-6-00-5-00-56-6-00-5-00-56-65303532-|

Verse riff I
|-------------------------------------------------|
|-------------------------------------------------|
|-------------------------------------------------| 3x
|-6-00-5-00-56-6-00-5-00-56-6-00-5-00-56-65303532-|


Chorus
|------------------------------------------------|
|------------------------------------------------|
|------------------------------------------------|
|-66666601-1-0-8--8-0-5--5555555-10-1010/13-1313-|

|----------------------------|
|----------------------------|
|----------------------------|
|-6-6666601-1/8-805-55550865-|

Solo riff I
|-------------------------------------------------|
|-------------------------------------------------|
|-------------------------------------------------| 2x
|-6-00-5-00-56-6-00-5-00-56-6-00-5-00-56-66650032-|

Solo riff II
|------------------------------------------------|
|------------------------------------------------|
|------------------------------------------------|
|-66666601-1-0-8--8-0-5--5555555-10-1010/13-1313-|

|-----------------------------------|
|-----------------------------------|
|-----------------------------------|
|-6-6666601-1/8-805-555555555555555-|

Rest

|--------|
|--------|
|--------|
|-/15\\\-|

Bridge
|--------------------------|
|--------------------------| 
|--------------------------| 4x
|-00----00--00--0000--0000-|

|--------------------------|         |-----------|
|--------------------------|         |-----------|
|--------------------------| 3x then |-----------|
|-00-3^-00-00--0000--0002^-|         |-0000--023-|

Verse riff I
|-------------------------------------------------|
|-------------------------------------------------|
|-------------------------------------------------| 2x
|-6-00-5-00-56-6-00-5-00-56-6-00-5-00-56-65303532-|

Chorus riff I
|------------------------------------------------|
|------------------------------------------------|
|------------------------------------------------| 3x
|-66666601-1-0-8--8-0-5--5555555-10-1010/13-1313-|

Chorus riff III
|-----------------------------------|
|-----------------------------------|
|-----------------------------------|
|-6-6666601-1/8-805-555555555555555-|

|------------------------------|
|------------------------------|
|------------------------------| 4x
|-00--00----00--00--0000--0000-|

Outro
|--------------------------------|         |------|
|--------------------------------|         |------|
|--------------------------------| 3x then |------|
|-00--00----00--00--0000--0003/2-|         |-0000-|


There you go Psychosocial. Enjoy!
Suggest correction
comments
print report bad tab
1 comment total.
0 reply
MisterMushroom 303 Feb 24, 2012 05:21 AM

It's Paul Gray, not Paul Grey.

guest
You may want to rate the tab now too:
select rating
Wanna post a correction for this tab? Suggest correction