Oops, an error
Loading. Please wait.

Scissors Bass Tab

version 2
version 2

Whole song

Interactive

514 views 6 this week
no commentswrite comment
1 2 3 4 5
please rate
add to favorites
launch autoscroll
font size
0
reset
guitar tuner
Tab Pro tools
  • play this tab
  • loop segment
  • change instrument
  • show fretboard
  • metronome
×
Best way to learn
"Scissors"
Autoscroll
slow
fast
+/-
esc
set tempo
stop
Contributor
Slipknot
Scissors
Self-Titled
A E A D

[All the credit for this tab goes to www.slipknot-metal.com.]

Those are the riffs... listen for the changes and times played. 
Not that hard, though at the end it gets a little crazy to really hear.
 

D|----------|
A|----------|
E|----------|
A|2---1-0-1-|

D|-----------|
A|-----------|
E|-----------|
A|2~~~-1~~~~-|

D|----------------------------|
A|-----------------2-----2----|
E|2-3-2-0-2-3-2---2-----2---3-|
A|----------------------------|

D|-------------|
A|-------------|
E|-------------|
A|2---1--0-1-2-|

D|----------------------------|
A|------------------2----2----|
E|2-3-2-0-2-3-2----2----2---3-|
A|----------------------------|


D|--------------|
A|--------------|
E|3-2-2--2--3-2-|
A|--------------|


D|------------------------|
A|------------------------|
E|------------------------|
A|0-3--2-2--0-3--2-2--0-3-|


D|----------------|
A|----------------|
E|2-3-2-3-2-4-2-4-|
A|----------------|


D|--------------------|
A|--------------------|
E|--------------------|
A|0-3-0-2-0-3-0-2-0-3-|


D|--------------------|
A|--------------------|
E|0-3-0-2-0-3-0-2-0-4-|
A|--------------------|


D|----------|
A|----------|
E|3~~--2~~~-|
A|----------|


D|---------|
A|---------|
E|3-2--3-2-|
A|---------|


D|----------|
A|----------|
E|----------|
A|2---1-0-1-|


D|-------|
A|-------|
E|-------|
A|0-2--1-|


D|----------|
A|----------|
E|----------|
A|---2---1--|


D|----------|
A|----------|
E|----------|
A|--2-2---1-|


[All the credit for this tab goes to www.slipknot-metal.com.]
comments
We did not receive enough feedback on this tab! Please rate:
print report bad tab
1 2 3 4 5
I want to post or [tab]
guest
You may want to rate the tab now too:
select rating
Please do not post tabs as comments. Select "correction" instead!