Oops, an error
Loading. Please wait.

Slipknot Bass Tab

version 1
version 1

Album

Whole song

Interactive

11,029 views 12 this week
8 commentsread comments
1 2 3 4 5
please rate
add to favorites
launch autoscroll
font size
0
reset
guitar tuner
Autoscroll
slow
fast
+/-
esc
set tempo
stop
Help us to improve Ultimate-Guitar.com Take our survey!
×
Contributor
mcra7xra 316
SLIPKNOT ALBUM BY SLIPKNOT

TUNING: B F# B E

Tracklisting:
1.742617000027
2(SIC)
3.EYELESS
4.WAIT AND BLEED
5.SURFACING
6.SPIT IT OUT
7.TATTERED AND TORN
8.ME INSIDE
9.LIBERATE
10.PROSTHETICS
11.NO LIFE
12.DILUTED
13.ONLY ONE
14.SCISSORS

1.742617000027

2.(SIC)

Tabbed By Davide Castagnone


INTRO
E |------------------------------------------------------|
B |------------------------------------------------------|
F#|------------------------------------------------------|
B |-0-0---0-0-0---0-0-0---0-0-0-1------------------------|


Variation at 21 seconds
E |------------------------------------------------------|
B |------------------------------------------------------|
F#|------------------------------------------------------|
B |--3-0-0-0-1-0-0-0-------------------------------------|


Verse
E |------------------------------------------------------|
B |------------------------------------------------------|
F#|------------------------------------------------------|
B |-1-0-0-1-0-1-0-1-0-1-4-3-0-6--------------------------|

Chorus
E |------------------------------------------------------|
B |------------------------------------------------------|
F#|-10--7--9--6------------------------------------------|
B |------------------------------------------------------|

Variation 2  1 min and 30 sec
E |------------------------------------------------------|
B |------------------------------------------------------|
F#|--5-----6---0-----------------------------------------|
B |----6-6---7-------------------------------------------|

Variation 3 1 min and 40 sec
E |------------------------------------------------------|
B |------------------------------------------------------|
F#|--5h-6-5h-6-------------------------------------------|
B |------------6-----------------------------------------|

Variation 4  1 min and 50 sec
E |------------------------------------------------------|
B |------------------------------------------------------|
F#|------------------------------------------------------|
B |--0-0-0-0-0-1-----------------------------------------|

Variation 5 1 min and 58 sec
E |------------------------------------------------------|
B |------------------------------------------------------|
F#|--------1---------------------------------------------|
B |--0-3-2---0-3-2---------------------------------------|

3.EYELESS

Tabbed By: Mark Valencia (corrected by Josh Wells)

Tuning: (B,E,A,D,G)

Intro:

G||--------------------------||
D||--------------------------||
A||--------------------------||
E||-------3------------------||
B||-0-0-1---0-1-0-0-1-0-0-1--||

Chorus:

G||---------------------------||
D||---------------------------||
A||---------------------------||
E||---------------------------||
B||-0-0-1-3-0-1-0-0-1-0-0-1---||

Verse:

G||----------------||
D||----------------||
A||----------------||
E||----------------||
B||-0-0-1-3-0-0-1--||

Fill:

G||-------------------------||
D||-------------------------||
A||-------------------------||
E||-------------------------||
B||-99-8-99-7-99-8-99-8-99--||

Break:

G||----------------------||
D||----------------------||
A||----------------------||
E||----------------------||
B||-0-0-0-6/0-0-1-0-0-1--||

Break 2:

G||----------||
D||----------||
A||----------||
E||---1------||
B||-0---3-4--||

(I changed "Break 2" to:
E||---1------||               E||----------||
B||-0---3-4--||  instead of   B||-0-6-3-4--||
Its just easier to play this way.)

4.WAIT AND BLEED

tabbed by trpelonchaspunk


Intro/Chorus
E------------------------------------------------------------|
B------------------------------------------------------------|
F#-----------------------------------------------------------|
B-0-0-0-7--7-7-7-1--1-1-1-8--8-8-8-0-------------------------|           x4


E--------------------------------------------------|
B--------------------------------------------------|
F#-------------------------------------------------|
B-0-1-0--------0-1-0-------------------------------|

Verse
E--------------------------------------------------|
B--------------------------------------------------|
F#-------------------------------------------------|
B-0-1-0-----0-1-0--1-4-1---0-1-0-----0-1-0--1-4-1--|


E--------------------------------------------------|
B--------------------------------------------------|
F#-------------------------------------------------|
B------3--7--0-1-0---0-1-0----3--7--0-1-0---0-1-0--|

Last Chorus
E--------------------------------------------------|
B--------------------------------------------------|
F#-------------------------------------------------|
B-0-0-0-7-7-7-7-1-1-1-1-1-1-1-1--------------------|

Outro
E--------------------------------------------------|
B--------------------------------------------------|
F#-------------------------------------------------|
B-0-1-0--0-1-0-4-1---0-1-0--0-1-0-4-1--------------|

5.SURFACING

TABBED BY DIABLOS91

Tuning: B E A D (low to high)

Intro
D----------------|
A----------------|
E----------------|
B-0-1- rest -0-1-|

Chorus- There are 2 main variations on the chorus
just listen to the cd.

Chorus
D-----------|
A-----------|
E-----------|
B-0-1-0-0-1-|

Verse- I know you don't think this is right!
If you don't think it is right go and by
their video... it sounds good to me.

Verse
D----------|
A------0-1-|
E----------|
B-0-1------|

Interlude 1
D----------------------------------|
A----------------------------------|
E-------7-6-5-------4-3-2----------|
B-8-7-6-------6-5-4-------3-2-1-0--|

Second interlude
D-----------------|
A-----------------|
E---------2-1-----|
B-3-2-3-2-----3-2-|

"I am the push that makes you move..."
D--------------|
A-2-2-3-2-2-3--|
E--------------|
B--------------|

6.SPIT IT OUT

Tabbed By Davide Castagnone

Verse
E |--------------------------------------------|
B |--------------------------------------------|
F#|--------------------------------------------|
B |--0-0-1-0-0-1-0-1---------------------------|

Chorus
E |--------------------------------------------|
B |--------------------------------------------|
F#|--------------------------------------------|
B |-3-2-2-2-2-2-3-1-1-1-1----------------------|

Interlude
E |-----------------------------------------|
B |-7-7-7-7-8-x4----------------------------|
F#|----------------17-17-17-17--------------|
B |-----------------------------------------|

7.TATTERED AND TORN

>From Mason Schneider (maseman56@hotmail.com)

This is basically the only part in the song
D|-1-0-00-3-0-00-1-0-00-1-0-4---

8.ME INSIDE

tabbed by modus operendi
jamie cushion

RIFF 1
D|----------|
A|----------|
E|----------|
B|-0-0-1P0--|

RIFF 2
D|-------------|
A|-------------|
E|-------------|
B|1P0-1P0-0-0--|

RIFF 3
D|--------------------|
A|--------------------|
E|---------2-2-2-2----|
B|1-1-1-1-------------|

RIFF 4
D|-------------------|
A|-------------------|
E|-------------------|
B|-0-6-5-3-1-3-0-1-3-|

RIFF 5
D|------------------------------------------|
A|------------------------------------------|
E|------------------------------------------|
B|-0-0-1P0--0-0-0-1P0--0-0-0-1P0--0-0-0-1P0-|

RIFF 6
D|-------------------------|
A|-------------------------|
E|-------------------------|
B|-0-0-0-0-0-1-0-0-0-0-0-1-|

9.LIBERATE

Tune : (High to low) D, A, E, B ( 4- string bass )
Tabbed by Brendan Mearns- bren@riconnect.com

INTRO

D  ----------------------------------------------------------------------|
A  ----------------------------------------------------------------------|
E  ----------------------------------------------------------------------|
B  ----- 4-- 0--- 00--000--00--------------------------------------------|

VERSE 1

D  -----------------------------------------------------------------------|
A  -----------------------------------------------------------------------|
E  -----------------------------------------------------------------------|
B  ------- 1-0-------0-1-0-------- 0------4-------------------------------|
        Bend on last note.

VERSE 2
D ------------------------------------------------------------------------|
A  -----------------------------------------------------------------------|
E  -----------------------------------------------------------------------|
B  ------ 1- 0---0-0-0-0-0---0-0-0----1- 0-0----0-1-0-----4---------------|
        Bend last note.
BRIDGE 1and BRIDGE 2

D ------------------------------------------------------------------------|
A  -----------------------------------------------------------------------|
E  -----------------------------------------------------------------------|
B  ---------- 0-0---- 0-0---- 0-0---- 0-0---- 0-0-------------------------|

D  -----------------------------------------------------------------------|
A  -----------------------------------------------------------------------|
E  ---------------- 7----8------7----8------ 7----8-----------------------|
B  -----------------------------------------------------------------------|

PRE-CHORUS and CHORUS

D
-----------------------------------------------------------------------------|
-----------------------------------------------------------------------------|
A
--------------------------------------------------------------------------------|
--------------------------------------------------------------------------------|
E  ------- 5--7-----------------------------------------------------------------| 5 ^
7--5------------- 7------ 5-----------------------------------------------------|
B  ------------------ 7--7---- 9--9---- 10--10---- 12--12------------------- 7--|
5- 3----- 3--------5------------------------------------------------------------|

BRIDGE

D
-----------------------------------------------------------------------------|
-----------------------------------------------------------------------------|
A
-----------------------------------------------------------------------------|
-----------------------------------------------------------------------------|
E
-----------------------------------------------------------------------------|
--------------------------------5--------------------------------------------|
B  ------ 5----7 \ ---- 0--- x--- 0-0--- x--- 0--- x--- 0-0--- x--- 0-0-0----|
x-  0- x-- 0-5 ^ 7-----------------------------------------------------------|

OUTRO

D  ----------------------------------------------------|
A  ----------------------------------------------------|
E  ----------------------------------------------------|
B  --------- 3--- 3--- 1------- 3--- 3--- 1------------|

10.PROSTHETICS

B-3-0-2-0-0000-| AND B-00---00---00---00---|

11.NO LIFE

tabbed by modus operendi
jamie cushion

INTRO
G)----------------------------------|
D)----------------------------------|
A)----------------------------------|
E)----------------------------------|
B)------5-6-7-8-9-5---5-6-7-8-9-4---|

VERSE
------------------------------------|
------------------------------------|
------------------------------------|
------------------------------------|
-000-3-00-5-000-1-00----------------|

CHORUS
------------------------------------|
------------------------------------|
------------------------------------|
------------------------------------|
3-2-4-3------3-2-4-3----------------|

AFTER CHORUS
------------------------------------|
------------------------------------|
------------------------------------|
------------------------------------|
-2345---2345------------------------|

FILL
-------------------------------------------------|
-------------------------------------------------|
-------------------------------------------------|
-------------------------------------------------|
333-0-0-0---4-4-4-1-1-1-3-3-3-0-0-0--4-4-4-1-1-1-|

AFTER FILL
------------------------------------|
------------------------------------|
------------------------------------|
------------------------------------|
000-0000-000-00000-0000-------------|

OUTRO
------------------------------------|
------------------------------------|
------------------------------------|
------------------------------------|
3243-3243-3243-3243-3243-3243-------|

12.DILUTED

B-0-0-000-0-15/////0-|

B-6-6-6-6-6-6-6-0-0-0-0-0-0-0-|

B-3-000-|

13.ONLY ONE

tabbed by modus operendi
jamie cushion

riff 1
d-------------------------|
a-------------------------|
e-------------------2-----|
b-0-8-7-3-0-8-2-1-1---1---|

Riff 2
d-------------------------|
a-------------------------|
e-------------------------|
b-0-7-6-0-0-5-4-3-0-1-0---|

Riff 4
d-------------------------|
a-------------------------|
e-------------------------|
b-0-0-0-5-6---------------|

Riff 4
d--------------------------------------|
a--------------------------------------|
e-------7-5-----7-5-----7-5------------|
b-0-0-0-----0-0-----0-0-----0/1/2/3/4/5|

Riff 5
d---------------------------|
a---------------------------|
e---------------------------|
b-2-1-0-0-4-3-0-0-----------|

14.SCISSORS

TABBED BY: Nick Amos - nick_the_flatlander@hotmail.com


D|----------|
A|----------|
E|----------|
B|2---1-0-1-|


D|------------------|
A|------------------|
E|------------------|
B|2---1--2-2-1--2-0-|


D|---------------------------------------------------|
A|---------------------------------------------------|
E|-----------------2-----2---------------------------|
B|2-3-2-0-2-3-2---2-----2--2-3-|D|---------|---------|
A|---------|-----------------------------------------|
E|---------|-----------------------------------------|
B|-03-222--|-2---1-----------------------------------|


D|---------|
A|---------|
E|----2----|
B|-0----1--|


D|-------------------|
A|-------------------|
E|-------------------|
B|0-3--0-2--0-3--0-2-|

D|----------|
A|----------|
E|-4-3--4-3-|
B|----------|

D|-------|
A|-------|
E|-------|
B|0-2--1-|

D|----------|
A|----------|
E|----------|
B|--2-2---1-|

BWAHAHA!!!!!!!!!!!!! EAT THAT, SLIPKNOT HATERS!!!!!!!!!!!!!!!!!!!!!

special thanks to everyone who gave me the tabs. i made a couple though... (the 
ones---i made them in like, 2 seconds. literally.)

worship me.
comments
We did not receive enough feedback on this tab! Please rate:
print report bad tab
1 2 3 4 5
8 comments total. Showing first comments.
-1 reply
Gibson_SG_uzr55 4,022 wrote on September 10 2006, 04:42 pm

There is no song called me inside, truckers. You left out purity and I think the other one is called failure limb nurse or something like that.

+1 reply
Satan Man 1,446 wrote on September 12 2006, 10:56 am

hes tabbed the rerelease of the album not the original

0 reply
mcra7xra 316 wrote on October 8 2006, 05:31 pm

yeah, that's teh truth^

I want to post or [tab]
guest
You may want to rate the tab now too:
select rating
Please do not post tabs as comments. Select "correction" instead!