Oops, an error
Loading. Please wait.
We have an official Snuff tab made by UG professional guitarists. Check out the tab »
×
427 views 1 this week
no commentswrite comment
1 2 3 4 5
2 more votes to show rating
add to favorites
×
Save as Personal and add changes to this tab that will be seen only by you. Learn more ›
×
You can save this tab as Personal to edit and correct it or add notes. All changes will be seen only by you. Learn more »
launch autoscroll
font size
0
reset
guitar tuner
backing track
0:00
0:00
edit
Autoscroll
slow
fast
+/-
esc
set tempo
stop
-------------------------------------------------------------------------------
                             Snuff - Slipknot
-------------------------------------------------------------------------------
Tabbed by: Andu Needle
E-mail: sulfur_in_my_lungs@yahoo.com

The song is in Standard C#.
The first string is tunned down a half step from Drop B.
So instead of B F# B E (Drop B) you will get C# F# B E (Standard C#).

Chorus: (1:06)

E |-------------------------------------------------------------------------|
B |-------------------------------------------------------------------------|
F#|-------------------------------------------------------------------------|
C#|-55~---------------------------------------------------------------------|(x8)

Pre verse: (1:37)

This is the way Paul does it here, at 1:28: https://www.youtube.com/watch?v=2v06LT4U2FA

E |-------------------------------------------------------------------------|
B |-7~-7-7-77~--9-10~---10--10~---10--109~----------------------------------|
F#|-------------------10--10----10--10--------------------------------------|
C#|-------------------------------------------------------------------------|(x2)

Verse 2: (1:52)

E |-------------------------------------------------------------------------|
B |-7~-7-7-77~--9-10~---10--10~---10--109~----------------------------------|
F#|-------------------10--10----10--10--------------------------------------|
C#|-------------------------------------------------------------------------|(x3)

E |-------------------------------------------------------------------------|
B |-7~-7-7-77~--9-10~---10--10~---------------------------------------------|
F#|-------------------10--10------------------------------------------------|
C#|-------------------------------------------------------------------------|

Chorus 2: (2:23)

E |-------------------------------------------------------------------------|
B |-5~-55~-55~-55555557~-77~-77~-777777(10)5~-55~-55~-55555557~-77777775~---|
F#|-------------------------------------------------------------------------|
C#|-------------------------------------------------------------------------|

E |-------------------------------------------------------------------------|
B |-5~-55~-55~-55555557~-77~-77~-777777(10)5~-55~-55~-55555555-33333333-----|
F#|-------------------------------------------------------------------------|
C#|-------------------------------------------------------------------------|

E |-------------------------------------------------------------------------|
B |-10-10-10-10-15-14-12-10-------------------------------------------------|
F#|-------------------------------------------------------------------------|
C#|-------------------------------------------------------------------------|

The last 5~ from the first part is the first 5~  from the second one.

Solo: (2:54)

E |--------------------------------------------------------------------------|
B |--------------------------------------------------------------------------|
F#|-----------------------------------3~-------------------------------------|
C#|-55555555-55555-0~--11111111-11111----------------------------------------|(x3)

E |--------------------------------------------------------------------------|
B |--------------------------------------------------------------------------|
F#|-------------------88888888-88888888--------------------------------------|
C#|-55555555-55555-0~--------------------------------------------------------|

Last chorus: (3:25)

E |--------------------------------------------------------------------------|
B |----------------3-2-------------------------------------------------------|
F#|--------------------3-----------------------------------------------------|
C#|-33333333-33333-------55555555-55555555-----------------------------------|

E |--------------------------------------------------------------------------|
B |--------------------------------------------------------------------------|
F#|-----------------3-2------------------------------------------------------|
C#|-33333333-333333-----55555555-55555555------------------------------------|

E |--------------------------------------------------------------------------|
B |---------------7777-9999-(10)(10)(10)(10)-(12)(12)(12)(12)----------------|
F#|--------------------------------------------------------------------------|
C#|-33333333-33-x------------------------------------------------------------|

E |--------------------------------------------------------------------------|
B |--------------------------------------------------------------------------|
F#|--------------------------------------------------------------------------|
C#|-33333333-33333333-11111111-11111111--------------------------------------|

E |------------------------------------------------(10)(10)(10)(10)----------|
B |--------------------------9999-(10)(10)(10)(10)---------------------------|
F#|----------------7777-8888----------------------------------------0~-------|
C#|-5555-7777-8888-----------------------------------------------------------|

            
            
Suggest correction
Creating personal tab
Creating personal tab
You can edit any tab online and save it as your Personal.

You can edit, replace or remove any tab part or add personal notes – all changes will be seen only by you.

Personal tabs can be accessed anytime from any device, even offline.
Learn more »
Give kudos to tab author, rate the tab!
1 2 3 4 5
comments
print report bad tab
guest
You may want to rate the tab now too:
select rating
Wanna post a correction for this tab? Suggest correction