Oops, an error
Loading. Please wait.

Snuff Tab

version 4
version 4

Whole song

Interactive

Video

31,359 views 18 this week
no commentswrite comment
1 2 3 4 5
x 5
add to favorites
launch autoscroll
font size
0
reset
how to read this tab
guitar tuner
Autoscroll
slow
fast
+/-
esc
set tempo
stop
Help us to improve Ultimate-Guitar.com Take our survey!
×
Author
Difficulty
Tuning
novice
D A D G B E
-------------------------------------------------------------------------------
                             Snuff - Slipknot
-------------------------------------------------------------------------------
Tabbed by: mike kowal
Scale: A major
total guitars: 2

Intro and 1st Verse (both guitars)
e|--------------------------------------|
B|-----------------------------------3--|
G|--3--------------------------------2--|
D|--5---------------0--1----------------|
A|--5---------------0--1----------------|
D|------------------0--1----------------|  x6

Prechorus
guitar 1
e|--------------------------------------------------------------------------|
B|------1---3---3/4---3---1---1-3-1---------1---3---4/6---4p3-3---3-1-3-4-3-|
G|--3-----------------------3---------3-2-3---------------------------------|
D|--------------------------------------------------------------------------|
A|--------------------------------------------------------------------------|
D|--------------------------------------------------------------------------|

guitar 2
e|-----------------------------------------|
B|-----------------------------------------|
G|--7-pm77-7-pm77-pm7pm7pm7pm73--3--3--33--|
D|--8-pm88-8-pm88-pm8pm8pm8pm85--5--5--55--|
A|--8-pm88-8-pm88-pm8pm8pm8pm85--5--5--55--|
D|-----------------------------------------| x2

Chorus
guitar 1
e|---------------------------|
B|----------------------4-3--|
G|--------------------3------|
D|--3-3-3-3-3-3-3-3-3--------|
A|---------------------------|
D|---------------------------| x3

e|-------------------------------------------------|
B|----------------------3-4-3-----------3-4-3------|
G|--------------------3-------3-------3-------3----|
D|--3-3-3-3-3-3-3-3-3-----------3---3-----------3--|
A|-------------------------------------------------|
D|-------------------------------------------------|

guitar 2
e|----------------------------------|
B|----------------------------------|
G|--3--3-3-33-33337--7--77--7-77-73-|
D|--5--5-5-55-55558--8--88--8-88-85-|
A|--5--5-5-55-55558--8--88--8-88-85-|
D|----------------------------------| x3

e|----------------------------------|
B|----------------------------------|
G|--3--3--33-3333-3--3-3-3-3-3-333--|
D|--5--5--55-5555-5--5-5-5-5-5-555--|
A|--5--5--55-5555-5--5-5-5-5-5-555--|
D|----------------------------------|

Post Chorus
guitar 1
e|----------3/10-10\3-3-3-3-3-1-1--------|
B|--------------------------------3p1----|
G|------------------------------------3--|
D|---------------------------------------|
A|---------------------------------------|
D|---------------------------------------| x2

guitar 2
e|--------------------------------------------------------------------------|
B|--------------------------------------------------------------------------|
G|--7--7--7-7-pm7pm7pm7pm73--3--3-pm33-pm33--7--7-pm77-pm7pm7pm7pm73-pm33-3-|
D|--8--8--8-8-pm8pm8pm8pm85--5--5-pm55-pm55--8--8-pm88-pm8pm8pm8pm85-pm55-5-|
A|--8--8--8-8-pm8pm8pm8pm85--5--5-pm55-pm55--8--8-pm88-pm8pm8pm8pm85-pm55-5-|
D|--------------------------------------------------------------------------|

e|----------------------|
B|----------------------|
G|--pm33-pm3pm3pm3pm33--|
D|--pm55-pm5pm5pm5pm55--|
A|--pm55-pm5pm5pm5pm55--|
D|----------------------|

Verse 2 (both guitars)
e|---------------------------------------|
B|---------------------------------------|
G|--7--7--7-7-pm7pm7pm7pm73--3---3-pm32--|
D|--8--8--8-8-pm8pm8pm8pm85--5---5-pm53--|
A|--8--8--8-8-pm8pm8pm8pm85--5---5-pm53--|
D|---------------------------------------| x3

e|------------------------------|
B|------------------------------|
G|--7--7--7-7-pm7pm7pm7pm73--3--|
D|--8--8--8-8-pm8pm8pm8pm85--5--|
A|--8--8--8-8-pm8pm8pm8pm85--5--|
D|------------------------------|

Chorus
guitar 1
e|---------------------------|
B|----------------------4-3--|
G|--------------------3------|
D|--3-3-3-3-3-3-3-3-3--------|
A|---------------------------|
D|---------------------------| x3

e|-------------------------------------------------|
B|----------------------3-4-3-----------3-4-3------|
G|--------------------3-------3-------3-------3----|
D|--3-3-3-3-3-3-3-3-3-----------3---3-----------3--|
A|-------------------------------------------------|
D|-------------------------------------------------|

guitar 2 (adds distortion)
e|-------------------------------------1-----------------------------|
B|----------------------------------3---3----------------------------|
G|----------------------------------------3-2------------------------|
D|--3---------5---------3---------5-----------3---------5---------3--|
A|--3---------5---------3---------5-----------3---------5---------3--|
D|--3---------5---8-5---3---------5-----------3---------5---8-7---3--|

e|-----------------------------------------------|
B|-----------------------------------------------|
G|-----------------------------------------------|
D|--3pm3pm3pm3pm3pm3pm3pm3pm3pm3pm3pm3pm3pm3pm3--|
A|--3pm3pm3pm3pm3pm3pm3pm3pm3pm3pm3pm3pm3pm3pm3--|
D|--3pm3pm3pm3pm3pm3pm3pm3pm3pm3pm3pm3pm3pm3pm3--|

Breakdown
guitar 1 (adds distortion)
e|--3-1------------------------3-1----------------------|
B|------4--3--1--------------------4--3--1--------------|
G|---------------3--2-----0-----------------3--0--2--3--|
D|---------------------3--------------------------------|
A|------------------------------------------------------|
D|------------------------------------------------------| x2

guitar 2
e|--------------------------------------------------------------------|
B|--------------------------------------------------------------------|
G|--------------------------------------------------------------------|
D|--3333333333333333555555555555555533333333333333338888888888888888--|
A|--3333333333333333555555555555555533333333333333338888888888888888--|
D|--3333333333333333555555555555555533333333333333338888888888888888--| x2

Chorus (both guitars)
e|-------------------------------------------------------------------|
B|-------------------------------------------------------------------|
G|-------------------------------------------------------------------|
D|--3---------5---------3---------5-----------3------7--5---------3--|
A|--3---------5---------3---------5-----------3------7--5---------3--|
D|--3---------5---------3---------5-----------3---------5---------3--|

e|----------------------------------------------------|
B|----------------------------------------------------|
G|----------------------------------------------------|
D|--pm3pm3pm3pm3pm3pm3pm3pm3pm3pm3pm3pm3pm3pm3pm3pm3--|
A|--pm3pm3pm3pm3pm3pm3pm3pm3pm3pm3pm3pm3pm3pm3pm3pm3--|
D|--pm3pm3pm3pm3pm3pm3pm3pm3pm3pm3pm3pm3pm3pm3pm3pm3--|

Outro (both guitars)
e|--------------------------------------------------------------------------|
B|--------------------------------------------------------------------------|
G|--------------------------------------------------------------------------|
D|--3-3-3-3-5-5-5-5-8-8-8-8-12-12-12-15-13-13-13-13-13-13-13-13-13-13-13-13-|
A|--3-3-3-3-5-5-5-5-8-8-8-8-12-12-12-15-13-13-13-13-13-13-13-13-13-13-13-13-|
D|--3-3-3-3-5-5-5-5-8-8-8-8-12-12-12-15-13-13-13-13-13-13-13-13-13-13-13-13-|

e|-----------------|
B|-----------------|
G|-----------------|
D|--13-13-13-13-5--|
A|--13-13-13-13-5--|
D|--13-13-13-13-5--|


************************************

| pm  palm mute
| /   slide up
| \   slide down
| h   hammer-on
| p   pull-off

************************************

N.B. The three predominant chords played in this song are G, F, and A#. Also, there is 
instrument played during the first chorus and outro which I believe is a synth.

This is my first tab. I was frustrated with the best attempts at tabs for this song, 
the tunings and scales, so I decided to demonstrate what I understand to be played. Any 
would be appreciated.
Suggest correction
comments
print report bad tab
guest
You may want to rate the tab now too:
select rating
Wanna post a correction for this tab? Suggest correction