Oops, an error
Loading. Please wait.

Spit It Out tab

version 5
version 5
38,475 views 84 this week
3 commentsread comments
1 2 3 4 5
x 12
add to favorites
×
Save as Personal and add changes to this tab that will be seen only by you. Learn more ›
×
You can save this tab as Personal to edit and correct it or add notes. All changes will be seen only by you. Learn more »
launch autoscroll
font size
0
reset
how to read this tab
guitar tuner
backing track
0:00
0:00
edit
Autoscroll
slow
fast
+/-
esc
set tempo
stop
Spit it Out - Slipknot
Tabbed by:thezohan
Tuning:Drop B(B,F#,B,E,G#,C#)

 [Intro]  w/ flanger
C#|-------------------------------------------|
G#|-------------------------------------------|
E |-------------------------------------------|
B |-------------------------------------------|
F#|-------------------------------------------|
B |-1-0-/5-1-0-/5-1-0-1-0-/5-1-0-/5-1-0-------|
    
 [Verse] (very similar to intro) w/ flanger
C#|------------------------------------------------|
G#|------------------------------------------------|
E |------------------------------------------------|
B |------------------------------------------------|
F#|-1-0-/5--1-0-/5--1-0--1-0-/5--1-0-/5--1-0-------|
B |-1-0-/5--1-0-/5--1-0--1-0-/5--1-0-/5--1-0-------|
    X X     X X     X X  X X     X X     X X
 
 [Chorus]
C#|-------------------------------------------------------|
G#|-------------------------------------------------------|
E |-------------------------------------------------------|
B |-333—-22--2h3--3p1--111----333--22--2h3—-3p1--111------|
F#|-333--22--2h3--3p1--111----333--22--2h3—-3p1--111------|
B |-333--22--2h3—-3p1--111----333--22—-2h3—-3p1--111------|

 [Verse 2] *Gtr 1*         w/ wah pedal
C#|---------------------------------------------------|
G#|---------------------------------------------------|
E |---------------------------------------------------|
B |---6---7~-----6---7~------6----7~-----6---7~-------|
F#|-5---5------5---5------5----5-------5---5----------|
B |---------------------------------------------------|

[Verse 2] *Gtr 2*     w/ Flanger  (this one is kind of hard to hear)
C#|-10~----11~----10~----11~----10~----11~-----10~----11~-------|
G#|-10~----11~----10~----11~----10~----11~-----10~----11~-------|
E |-10~----11~----10~----11~----10~----11~-----10~----11~-------|
B |-------------------------------------------------------------|
F#|-------------------------------------------------------------|
B |-------------------------------------------------------------|

[Bridge]  | X4 |             |X2|                      | X1 |
C#|------------------|---------------------------|------------------------------|
G#|------------------|---------------------------|------------------------------|
E |-7-7-8--7-7-8-8-7-|--14-14-15--14-14-15-15-14-|--19-19-20--19-19-20-20-19----|
B |------------------|---------------------------|------------------------------|
F#|-5-5-6--5-5-6-6-5-|--12-12-13--12-12-13-13-12-|--17-17-18--17-17-18-18-17----|
B |------------------|---------------------------|------------------------------|

[Bridge Continued]   | X1 |
C#|----------------------------------------------------|
G#|----------------------------------------------------|
E |-21-21-21-21-21-21-21-21-21-21-21-21-21-21-21-21----|
B |----------------------------------------------------|
F#|-19-19-19-19-19-19-19-19-19-19-19-19-19-19-19-19----|
B |----------------------------------------------------|
 
[Bridge 2]   “f*** me, I’m all outta enemies”
C#|---------------------------------------------|
G#|---------------------------------------------|
E |---------------------------------------------|
B |-333-11-33-3p1-000---333-11-33-3p1-000-------|
F#|-333-11-33-3p1-000---333-11-33-3p1-000-------|
B |-333-11-33-3p1-000---333-11-33-3p1-000-------|

[Outro]
  P.M.------------------------------------------------|
C#|-------------------------------------------------------|
G#|-------------------------------------------------------|
E |-------------------------------------------------------|
B |-333—-22--2h3--3p1--111----333--22--2h3—-3p1--111------|
F#|-333--22--2h3--3p1--111----333--22--2h3—-3p1--111------|
B |-333--22--2h3—-3p1--111----333--22—-2h3—-3p1--111------|


************************************

| /    Slide up
| h    Hammer-on
| p    Pull-off
| ~    Vibrato
| P.M. Palm mute

************************************

            
            
Suggest correction
Creating personal tab
Creating personal tab
You can edit any tab online and save it as your Personal.

You can edit, replace or remove any tab part or add personal notes – all changes will be seen only by you.

Personal tabs can be accessed anytime from any device, even offline.
Learn more »
comments
print report bad tab
3 comments total.
+2 reply
rongold360 150 Jun 22, 2009 11:52 AM

See? Didnt have to send a message for me to rate!
-Ronnie

0 reply
thezohan 374 Jun 22, 2009 12:05 PM

lol!!! thanks man!

guest
You may want to rate the tab now too:
select rating
Wanna post a correction for this tab? Suggest correction