Oops, an error
Loading. Please wait.

Sulfur bass

version 1
version 1
22,850 views 24 this week
8 commentsread comments
1 2 3 4 5
x 10
add to favorites
×
Save as Personal and add changes to this tab that will be seen only by you. Learn more ›
×
You can save this tab as Personal to edit and correct it or add notes. All changes will be seen only by you. Learn more »
launch autoscroll
font size
0
reset
guitar tuner
backing track
0:00
0:00
edit
Autoscroll
slow
fast
+/-
esc
set tempo
stop
Author
Difficulty
intermediate
Tuning: B  F#  B  E

[Intro]
E |-------------------------------------------|
B |-------------------------------------------|
F#|--------------------3-2--------------------|  (x2)
B |-7/---6---5---3--5------3-5----------------|

E |------------------------------------------------|
B |------------------------------------------------|
F#|---------------------------------33-22----------|   (x5)
B |66666666---55555555---3333--5555------33-55-----|

[Verse] 
(starts after joey does that cool drum thing of his] repeat whole verse segment  twice)
E |----------------------------------------|
B |----------------------------------------|
F#|-5-----------------5656-----------------|   (x4)
B |---00-000-3-00-000------0h6-0h5-00-000--|

E |------------------------------------------------|
B |------------------------------------------------|
F#|----------------33-22---------------------------|  (x2)
B |66666666---55555555---3333--5555------33-55-----|

[Chorus]
E |--------------------------------------------------------------------|
B |------------8-7-5---------------------------------------------------| (x2)
F#|-5-5555-555--------5-5-5-8-7-5--------------------------------------|
B |---------------------------------3-3-3-3h5-3h5-3/5--5-5-5-8-7-5-----|

[Interlude]
E |-----------------------|
B |-------87--------------|
F#|-565--------6----------|  (x4)
B |-----------------------|

E |------76--------|
B |-454-------5----|
F#|----------------| (x4)
B |----------------|

[Outro]
E |------------------------------------------------|
B |------------------------------------------------|
F#|------------------------------------------------| (Keep playin till song ends really)
B |-0-1--0---6-6-5-1---0-1--0---8-8-7-1------------|

E |-----------------------|
B |-----------------------|
F#|-----------------------|
B |--0-6-5-0-4-2-0--------|



************************************

| /  Slide up
| h  Hammer-on

************************************
Suggest correction
Creating personal tab
Creating personal tab
You can edit any tab online and save it as your Personal.

You can edit, replace or remove any tab part or add personal notes – all changes will be seen only by you.

Personal tabs can be accessed anytime from any device, even offline.
Learn more »
comments
print report bad tab
8 comments total. Showing first comments.
0 reply
galta 72 May 27, 2010 05:49 AM

Way to go man! I'm not a bass-player myself, but I think it's a nice way to honor Paul's memory. As far as I'm familiar with the guitar-part and the bass-adaptation, it seems to be a great tab.

0 reply
BushMasterFlex 41 May 27, 2010 11:59 AM

the tab looks right. cant wait to play it!

RIP Paul Gray
say it again say it again WE WONT DIE!!!

0 reply
maggotbassist93 21 Jun 15, 2010 01:47 PM

thanks this tab helped out alot and much respect to you. paul was also an influence to me as well. he will be greatly missed by his maggot bothers. RIP Paul Gray.

guest
You may want to rate the tab now too:
select rating
Wanna post a correction for this tab? Suggest correction