Oops, an error
Loading. Please wait.

Surfacing tab

version 4
7,552 views 6 this week
2 commentsread comments
1 2 3 4 5
x 3
add to favorites
×
Save as Personal and add changes to this tab that will be seen only by you. Learn more ›
×
You can save this tab as Personal to edit and correct it or add notes. All changes will be seen only by you. Learn more »
launch autoscroll
font size
0
reset
how to read this tab
guitar tuner
backing track
0:00
0:00
edit
Autoscroll
slow
fast
+/-
esc
set tempo
stop
Slipknot tabbed by Alex z

t = tapping
b = bend
/ = slide up
\ = slide down

yer people this song has tapping in it from watching mick play it live i figured out a 
to play this song that sounds exactly lyk it

mick intro

-------------------------------------------------------------------|
-------------------------------------------------------------------|
---------17b-------------------------0h3p0h3p0---------------------|
-------------------------------------------------------------------|
-------------------------------------------------------------------|
-------------------------------------------------------------------|

then jim comes in with this

-------------------------------------------------------------------|
-------------------------------------------------------------------|
-------------------------------------------------------------------|
-------------------------------------------------------------------|
--0---0----1-0--------0---1------0---0----1-0---------0----1-------|
--0---0----1-0--------0---1------0---0----1-0---------0----1-------|

then mick and jim do this together

-------------------------------------------------------------------|
-------------------------------------------------------------------|
-------------------------------------------------------------------|
-------------------------------------------------------------------|
--0---0----1-0--------0---1------0---0----1-0---------0----1-------|
--0---0----1-0--------0---1------0---0----1-0---------0----1-------|

then little section before verse

-------------------------------------------------------------------|
-------------------------------------------------------------------|
-------------------------------------------------------------------|
-------------------------------------------------------------------|
-----------1-------------1---------------1---------------1---------|
--0---0----1-0-------0---1------0---0----1-0---------0---1---------|


then verse mick

-------------------------------------------------------------------|
-------------------------------------------------------------------|
--------17b--------------------------------------------------------|
-------------------------------------------------------------------|
-------------------------------------------------------------------|
-------------------------------------------------------------------|

jim during verse

-------------------------------------------------------------------|
-------------------------------------------------------------------|
-----7-7--8--7----7-8b---------------------------------------------|
-----x-x--x--x----x-x----------------------------------------------|
-----5-5--6--5----5-6b---------------------------------------------|
-------------------------------------------------------------------|

then when corey says "fuk it all" both mick and jim do this

-------------------------------------------------------------------|
-------------------------------------------------------------------|
-------------------------------------------------------------------|
-------------------------------------------------------------------|
--0---0----1-0-------0---1------0---0----1-0--------0----1---------|
--0---0----1-0-------0---1------0---0----1-0--------0----1---------|

then verse mick again first of all before corey sings played like this

-------------------------------------------------------------------|
-------------------------------------------------------------------|
--------17b--------------------------------------------------------|
-------------------------------------------------------------------|
-------------------------------------------------------------------|
-------------------------------------------------------------------|

then when corey starts singing mick plays this
bend is pulled as far is it can go then played again once done

--------------------------------------------------------------------|
--------------------------------------------------------------------|
-----------17b17----------------------------------------------------|
--------------------------------------------------------------------|
--------------------------------------------------------------------|
--------------------------------------------------------------------|

jim plays his normal verse again

-------------------------------------------------------------------|
-------------------------------------------------------------------|
-----7-7--8--7----7-8b---------------------------------------------|
-----x-x--x--x----x-x----------------------------------------------|
-----5-5--6--5----5-6b---------------------------------------------|
-------------------------------------------------------------------|

then again when corey says "fuk it all" both guitars do this

-------------------------------------------------------------------|
-------------------------------------------------------------------|
-------------------------------------------------------------------|
-------------------------------------------------------------------|
--0---0----1-0-------0---1------0---0----1-0--------0----1---------|
--0---0----1-0-------0---1------0---0----1-0--------0----1---------|

then after corey says "and dont u fukn judge me" both guitars

-------------------------------------------------------------------|
-------------------------------------------------------------------|
-------------------------------------------------------------------|
-------------------------------------------------------------------|
-----------1-------------1---------------1---------------1---------|
--0---0----1-0-------0---1------0---0----1-0---------0---1---------|

then little bass solo then just mick

-------------------------------------------------------------------|
-------------------------------------------------------------------|
-------------------------------------------------------------------|
-------------------------------------------------------------------|
----------------7-6-------------4-3--------------------------------|
---------8-7-6-------8-7-6--4-3-----4-3-2-1------------------------|

then both guitars

-------------------------------------------------------------------|
-------------------------------------------------------------------|
-------------------------------------------------------------------|
-----------------9-8-------------6-5-------------------------------|
---------8-7-6---7-6--8-7-6--4-3-4-3-4-3-2-1-----------------------|
---------8-7-6--------8-7-6--4-3-----4-3-2-1-----------------------|

then bridge both guitars play this

-------------------------------------------------------------------|
-------------------------------------------------------------------|
-------------------------------------------------------------------|
-----------10-9--------------10-9----------------------------------|
--3-2-3-2---8-7--3-2-3-2-3-2--8-7----------------------------------|
--3-2-3-2--------3-2-3-2-3-2---------------------------------------|

then mick again before corey starts singing

-------------------------------------------------------------------|
-------------------------------------------------------------------|
------17b----------------------------------------------------------|
-------------------------------------------------------------------|
-------------------------------------------------------------------|
-------------------------------------------------------------------|

then when corey starts saying "i am the push that makes u move"
micks doin this

-------------------------------------------------------------------|
-------------------------------------------------------------------|
-------17b17-------------------------------------------------------|
-------------------------------------------------------------------|
-------------------------------------------------------------------|
-------------------------------------------------------------------|

and jim at this time is playing this softly

-------------------------------------------------------------------|
-------------------------------------------------------------------|
-------------------------------------------------------------------|
-------------------------------------------------------------------|
-------------------------------------------------------------------|
--0---0----1-0-------0---1------0---0----1-0---------0---1---------|

then chorus again "fuk it all" both guitars

-------------------------------------------------------------------|
-------------------------------------------------------------------|
-------------------------------------------------------------------|
-------------------------------------------------------------------|
--0---0----1-0-------0---1------0---0----1-0--------0----1---------|
--0---0----1-0-------0---1------0---0----1-0--------0----1---------|

then finally after corey says "dont ever judge me"

-------------------------------------------------------------------|
-------------------------------------------------------------------|
-------------------------------------------------------------------|
-------------------------------------------------------------------|
-----------1-------------1---------------1---------------1---------|
--0---0----1-0-------0---1------0---0----1-0---------0---1---------|


this it ladies and gentle man i fixed it up bocause my last tab was crap for this, this 
is exactly write


member its drop b


PS: accept it
Suggest correction
Creating personal tab
Creating personal tab
You can edit any tab online and save it as your Personal.

You can edit, replace or remove any tab part or add personal notes – all changes will be seen only by you.

Personal tabs can be accessed anytime from any device, even offline.
Learn more »
Give kudos to tab author, rate the tab!
1 2 3 4 5
comments
print report bad tab
2 comments total.
0 reply
742627000017 163 Aug 09, 2007 12:59 AM

This one is very damn close...closer than those other tabs...if you have a pitch shifter then it will sound exactly like Mick

0 reply
alex z 291 Aug 09, 2007 01:41 AM

thnx dude

guest
You may want to rate the tab now too:
select rating
Wanna post a correction for this tab? Suggest correction