Oops, an error
Loading. Please wait.

The Blister Exists tab

version 1
version 1
15,463 views 18 this week
4 commentsread comments
1 2 3 4 5
x 4
add to favorites
×
Save as Personal and add changes to this tab that will be seen only by you. Learn more ›
×
You can save this tab as Personal to edit and correct it or add notes. All changes will be seen only by you. Learn more »
launch autoscroll
font size
0
reset
how to read this tab
guitar tuner
backing track
0:00
0:00
edit
Autoscroll
slow
fast
+/-
esc
set tempo
stop
Author
Great song, sounds pretty good when i play it. These Riffs are all in order and if you
a riff it will tell you. enjoy!

Guitar 1 (Mick Thompson) Drop B High to Low (C#,G#,E,B,F#,B)
Guitar 1I (James Root)   Drop B High to Low (C#,G#,E,B,F#,B)


[Riff 1]

Guitar 1
C#|-----------------------------------------------|       C#|------------|
G#|-----------------------------------------------|       G#|------------|
E |-----------------------------------------------|       E |------------|
B |-----------------------------------------------|       B |------------|
F#|5h6-1-----1-4h5---------4h5---------4h5--------|       F#|-5h6-1-----1|
B |----1-0-0-1-----1-0-0-1-----1-0-0-1-----1-0-0-1|       B |-----1-0-0-1|

Guitar 2                                       (x4)
C#|-----------------------------------------------|       C#|------------|
G#|-----------------------------------------------|       G#|------------|
E |-----------------------------------------------|       E |------------|
B |-----------------------------------------------|       B |------------|
F#|5h6-1-----1-4h5---------4h5---------4h5--------|       F#|-5h6-1-----1|
B |----1-0-0-1-----1-0-0-1-----1-0-0-1-----1-0-0-1|       B |-----1-0-0-1|


[Riff 2]

Guitar 1
C#|----------------------------------|
G#|----------------------------------|
E |----------------------------------|
B |------------------------------1-1-|
F#|1-----1-------------1-----1-------|
B |1-0-0-1-2-2-2-2-2-2-1-0-0-1-2-----|

Guitar 2
C#|----------------------------------|
G#|----------------------------------|
E |----------------------------------|
B |------------------------------1-1-|
F#|1-----1-------------1-----1-------|
B |1-0-0-1-2-2-2-2-2-2-1-0-0-1-2-----|(x8)


[Riff 3]

Guitar 1
C#|--------------|
G#|--------------|
E |--------------|
B |--------------|
F#|1-----1-------|
B |1-0-0-1-3/4\3-|

Guitar 2
C#|--------------|
G#|--------------|
E |--------------|
B |--------------|
F#|1-----1-------|
B |1-0-0-1-3/4\3-|(x8)


[Riff 4]

Guitar 1
C#|----------------9-9-9-9-9-7-9-11-9-7---|
G#|------------------------------------9~-|
E |-9-9-9-9-8-8-8-8-----------------------|
B |---------------------------------------|
F#|---------------------------------------|
B |---------------------------------------|

Guitar 2
C#|----------------------------------|
G#|----------------------------------|
B |----------------------------------|
E |------------------------------1-1-|
F#|1-----1-------------1-----1-------|
B |1-0-0-1-2-2-2-2-2-2-1-0-0-1-2-----|(x8)


[Riff 5]

Guitar 1
C#|--------------|
G#|--------------|
E |--------------|
B |--------------|
F#|1-----1-1h2p1-|
B |1-0-0-1-1h2p1-|

Guitar 2
C#|--------------|
G#|--------------|
E |--------------|
B |--------------|
F#|1-----1-1h2p1-|
B |1-0-0-1-1h2p1-|(x8)


[Riff 6]

Guitar 1
C#|---------------9-9-9-9-9-7-9-11-9-7------------------9-9-9-9-9-9-9-9-9-9-|
G#|-----------------------------------9~------------------------------------|
E |9-9-9-9-8-8-8-8-----------------------9-9-9-9-8-8-8-8--------------------|
B |-------------------------------------------------------------------------|
F#|-------------------------------------------------------------------------|
B |-------------------------------------------------------------------------|

Guitar 2
C#|----------------------------------------|
G#|----------------------------------------|
E |----------------------------------------|
B |------------------------------------4/2-|
F#|----------------------2-2-----3-3-3-2/0-|
B |----------------------0-0-----1-1-1-----|


[Riff 2] (x4)

[Riff 4] (x2)


[Riff 7]

Guitar 1
C#|--------------|
G#|--------------|
E |--------------|
B |--------------|
F#|1-----1-------|
B |1-0-0-1-3/4\3-|

Guitar 2
C#|--------------|
G#|--------------|
E |--------------|
B |--------------|
F#|1-----1-------|
B |1-0-0-1-3/4\3-|(x4)


[Riff 8]

Guitar 1
(with tremolo effect on)
C#|-4~----------2h4p2----------7~-----------9~-------------|
G#|--------------------------------------------------------|
E |--------------------------------------------------------|
B |--------------------------------------------------------|
F#|--------------------------------------------------------|
B |--------------------------------------------------------|

Guitar 2
C#|--------------------------------------------------------|
G#|--------------------------------------------------------|
E |--------------------------------------------------------|
B |--------------------------------------------------------|
F#|1-----1-------1-----1-------1-----1-------1-----1-------|
B |1-0-0-1-3/4\3-1-0-0-1-3/4\3-1-0-0-1-3/4\3-1-0-0-1-3/4\3-|


[Riff 9]

Guitar 1
C#|------------------------------|
G#|------------------------------|
E |------------------------------|
B |------------------------------|
F#|3-2-3-0-1-2-1-0-1-2-4-2-1-2-1-|
B |1-------1-2-1-0-1-2-4-2-1-2-1-|

Guitar 2
C#|------------------------------|
G#|------------------------------|
E |------------------------------|
B |------------------------------|
F#|3-2-3-0-1-2-1-0-1-2-4-2-1-2-1-|
B |1-------1-2-1-0-1-2-4-2-1-2-1-|(x8)


[Drum Solo]


[Riff 10]
(over top of Drum solo)

Guitar 1
C#|-----------------------------------------|
G#|-----------------------------------------|
E |-----------------------------------------|
B |-----------------------------------------|
F#|3b-2---------------------0-0-1-2-0-1-3-4-|
B |1b-0-0-0-0-0-0-0-0-0-0-0-0-0-1-2-0-1-3-4-|

Guitar 2
C#|-----------------------------------------|
G#|-----------------------------------------|
E |-----------------------------------------|
B |-----------------------------------------|
F#|3b-2---------------------0-0-1-2-0-1-3-4-|
B |1b-0-0-0-0-0-0-0-0-0-0-0-0-0-1-2-0-1-3-4-|(x4)


[Riff 11]
(also over drum solo)

Guitar 1
C#|-----9-9-9-9-9-9-9-9-9-9-----------9-9-7-9-11-9-7-------9-9-9-9-9-9-9-9-9-9-----------9-9-9-9-9-9-9-9-|
G#|-------------------------------------------------9~---------------------------------------------------|
E |------------------------9-9-8-8-6-6----------------------------------------9-9-8-8-6-6----------------|
B |------------------------------------------------------------------------------------------------------|
F#|------------------------------------------------------------------------------------------------------|
B |------------------------------------------------------------------------------------------------------|

Guitar 2
C#|----------------------------------------------------------------------------------|
G#|----------------------------------------------------------------------------------|
E |----------------------------------------------------------------------------------|
B |----------------------------------------------------------------------------------|
F#|3b-2---------------------0-0-1-2-0-1-3-4-3b-2---------------------0-0-1-2-0-1-3-4-|
B |1b-0-0-0-0-0-0-0-0-0-0-0-0-0-1-2-0-1-3-4-1b-0-0-0-0-0-0-0-0-0-0-0-0-0-1-2-0-1-3-4-|(x4)


[Riff 3] (x4)

[Riff 8] (x2)

[Riff 9] (x11)


[Riff 12]

Guitar 1
C#|------------------------------|
G#|------------------------------|
E |------------------------------|
B |------------------------------|
F#|3-2-3-0-1-2-1-0-1-2-4-2-0-0-0-|
B |1-------1-2-1-0-1-2-4-2-0-0-0-|

Guitar 2
C#|------------------------------|
G#|------------------------------|
E |------------------------------|
B |------------------------------|
F#|3-2-3-0-1-2-1-0-1-2-4-2-0-0-0-|
B |1-------1-2-1-0-1-2-4-2-0-0-0-|


[Riff 9]  (x4)

[Riff 10] (x4) let the last note ring.

[Drum Solo]



************************************

| h  Hammer-on
| /  Slide up
| \  Slide down
| ~  Vibrato
| p  Pull-off
| b  Bend

************************************

            
            
Suggest correction
Creating personal tab
Creating personal tab
You can edit any tab online and save it as your Personal.

You can edit, replace or remove any tab part or add personal notes – all changes will be seen only by you.

Personal tabs can be accessed anytime from any device, even offline.
Learn more »
comments
print report bad tab
4 comments total. Showing first comments.
+1 reply
metalmaka 10 Jun 05, 2008 01:48 PM

Horrible tab man

0 reply
ploppy9765 10 Nov 14, 2008 02:36 PM

dude what the frik is that, you may like slipknot, but if they knew about this they would shoot u.

0 reply
Mate.Feed.Kill. 219 Nov 15, 2008 11:33 AM

ya i agree with you guys this tab is actually embarassing to me some parts i still agree with me are right but besides for that this tab makes me wanna kill myself

guest
You may want to rate the tab now too:
select rating
Wanna post a correction for this tab? Suggest correction