Oops, an error
Loading. Please wait.

The Blister Exists tab

version 5
version 5
29,277 views 6 this week
4 commentsread comments
1 2 3 4 5
x 10
add to favorites
×
Save as Personal and add changes to this tab that will be seen only by you. Learn more ›
×
You can save this tab as Personal to edit and correct it or add notes. All changes will be seen only by you. Learn more »
launch autoscroll
font size
0
reset
how to read this tab
guitar tuner
backing track
0:00
0:00
edit
Autoscroll
slow
fast
+/-
esc
set tempo
stop
Author
. = Palm Mute 
h = Hammer On
p = Pull Off
o = let ring
^ = Bend
* = Pinch Harmonic
~ = Vibrato
/\= Slide

     B F# B E G# C# 

MICK THOMSON'S LEAD PART

   --INTRO--

  -Riff 1
|-----------------|
|-----------------|
|-----------------|
|-----------------|
|---3p1-0---0-0---| x3
|---3p1-0---0-0---|

  -Riff 2
|-----------------|
|-----------------| (you could just go up to the 15th                      
|-----------------|     fret instead of Vibrato but 
|-----------------|          that sounds bad)
|-----------------| x3
|---13~~-0--0-0---|

|-----------------|
|-----------------|
|-----------------|
|-----------------|
|--------0--0-0---| 
|---13~~-0--0-0---|

ONE TWO THREE

|---------------------------------|
|---------------------------------|
|-----------------------------/-\-|
|---------------------------1-1-5-|
|--0--0-0-----------0---0-0-------| x4
|--0--0-0---01111---0---0-0-------|

YEAHHH

|---------------------------------|
|---------------------------------|
|-----------------------------/-\-|
|---------------------------1-1-5-|
|--0--0-0-----------0---0-0-------| x4
|--0--0-0---01111---0---0-0-------|

DROP IT

|------------------|
|------------------|
|------------------|
|------------------|
|--0---0-1--3-4-3--| x8
|--0---0-1--3-4-3--|

   --VERSE--

  (Tremolo Picking) 
|------------------------------|
|------------------------------|
|--------9---19-18-17----------|
|---------------------19-19-17-|
|--18-17-----------------------|
|------------------------------|           x4

|--------------------------------------|
|--------------------------------------|
|--------9------------19-18-17---------|
|------------19-18-17---------19-19-17-|
|--18-17-------------------------------|
|--------------------------------------|

This riff comes back in..
|------------------|
|------------------|
|------------------|
|------------------|
|--0---0-1--3-4-3--| x8
|--0---0-1--3-4-3--|

Back to this one time...
|------------------------------|
|------------------------------|
|--------9---19-18-17----------|
|---------------------19-19-17-|
|--18-17-----------------------|
|------------------------------|           x1

|--------------------------------------|
|--------------------------------------|
|--------9------------19-18-17---------|
|------------19-18-17---------19-19-17-|
|--18-17-------------------------------|
|--------------------------------------|

Thisssss.....
|---------------------------------|
|---------------------------------|
|-----------------------------/-\-|
|---------------------------1-1-5-|
|--0--0-0-----------0---0-0-------| x4
|--0--0-0---01111---0---0-0-------|

Then ack to the fast part one more time.
|------------------------------|
|------------------------------|
|--------9---19-18-17----------|
|---------------------19-19-17-|
|--18-17-----------------------|
|------------------------------|           x1

|--------------------------------------|
|--------------------------------------|
|--------9------------19-18-17---------|
|------------19-18-17---------19-19-17-|
|--18-17-------------------------------|
|--------------------------------------|


|------------------|
|------------------|
|------------------|
|------------------|
|--0---0-1--3-4-3--| x8
|--0---0-1--3-4-3--|
  
  CAN YOU FEEL THIS?! DIEING TO FEEL THIS!!


   --CHORUS--

There are random breaks through out the chorus. Listen to he songg...
|------------------------------|
|------------------------------|
|------------------------------|
|------------------------------|
|---2-3-0----6-5-6-5---3-3-5---| x8
|---2-3-0----6-5-6-5---3-3-5---|



   --BREAKDOWN RIFF--

|---------|
|---------|
|---------| Turn down Volume knob afer this
|---------|
|---1-0---| x1
|---1-0---|


|---------|
|---------|
|---------|
|---------| Swell back in with the Volume knob..
|----0----|
|----0----|

|------------------------------------------|
|------------------------------------------|
|------------------------------------------|
|------------------------------------------|
|---1-0----0-1-0-1-0-0---0-0-0-0---0--8^---| x4
|---1-0----0-1-0-1-0-0---0-0-0-0---0--8^---|


Tremolo picking again
|------------------------------|
|------------------------------|
|--------9---19-18-17----------|
|---------------------19-19-17-|
|--18-17-----------------------|
|------------------------------|           x4

|--------------------------------------|
|--------------------------------------|
|--------9------------19-18-17---------|
|------------19-18-17---------19-19-17-|
|--18-17-------------------------------|
|--------------------------------------|
I AM THE DAMAGED ONE, ALL MY LIFE + THE DAMAGE'S DONE!!




   --FINAL CHORUS--

|------------------|
|------------------|
|------------------|
|------------------|
|--0---0-1--3-4-3--| x16
|--0---0-1--3-4-3--|

|------------------------------|
|------------------------------|
|------------------------------|
|------------------------------|
|---2-3-0----6-5-6-5---3-3-5---| x16
|---2-3-0----6-5-6-5---3-3-5---|



   --OUTRO--

|------------------------------------------|
|------------------------------------------|
|------------------------------------------|
|------------------------------------------|
|---1-0----0-1-0-1-0-0---0-0-0-0---0--8^---| x4
|---1-0----0-1-0-1-0-0---0-0-0-0---0--8^---|

|---------|
|---------|
|---------| 
|---------|
|---1-0---| Let this ring till it dies out. Its like 45 seconds 
|---1-0---|  so you need some badass sustain to pull it off
Suggest correction
Creating personal tab
Creating personal tab
You can edit any tab online and save it as your Personal.

You can edit, replace or remove any tab part or add personal notes – all changes will be seen only by you.

Personal tabs can be accessed anytime from any device, even offline.
Learn more »
comments
print report bad tab
4 comments total. Showing first comments.
+1 reply
theFR3AKSH0W 90 Jun 15, 2009 11:33 AM

the 9s in Micks Lead Solos should be a 19.. By bad

0 reply
rongold360 150 Jul 02, 2009 05:44 PM

a little sloppy, but correct.

0 reply
KKWWARLOCK 10 Aug 13, 2009 06:49 PM

Really good tab, but on the swell part try a harmonic on 5 on the low B string. I think it sounds better, but you can try it and see for yourself.

guest
You may want to rate the tab now too:
select rating
Wanna post a correction for this tab? Suggest correction