Oops, an error
Loading. Please wait.

Three Nil tab

version 4
version 4
11,505 views 1 this week
4 commentsread comments
1 2 3 4 5
x 5
add to favorites
×
Save as Personal and add changes to this tab that will be seen only by you. Learn more ›
×
You can save this tab as Personal to edit and correct it or add notes. All changes will be seen only by you. Learn more »
launch autoscroll
font size
0
reset
how to read this tab
guitar tuner
edit
Autoscroll
slow
fast
+/-
esc
set tempo
stop
Author
Difficulty
                                  Three Nil                                     


                                                                        Slipknot
Track 1



                                  PM PM PM                             
      W                     Q     E  E  E   T T T T T  T T T T T T T   
C#||-------------------||---------------------------------------------|
G#||-------------------||---------------------------------------------|
E ||-------------------||*--------------------------------------------|
B ||-------------------||*--1/----------------------------------------|
F#||-------------------||---1/----0--3--2/--5-5-5-5-5S-6-6-6-6-6-6-6\-|
B ||-------------------||---1/----0--3--2/----------------------------|


        PM PM PM                               
  Q     E  E  E   T T T T T  T T T T T T T     
---------------------------------------------||
---------------------------------------------||
--------------------------------------------*||
--1/----------------------------------------*||
--1/----0--3--2/--5-5-5-5-5S-6-6-6-6-6-6-6\--||
--1/----0--3--2/-----------------------------||


         PM PM PM                             
   Q     E  E  E   T T T T T  T T T T T T T   
---------------------------------------------|
---------------------------------------------|
*--------------------------------------------|
*--1/----------------------------------------|
---1/----0--3--2/--5-5-5-5-5S-6-6-6-6-6-6-6\-|
---1/----0--3--2/----------------------------|


        PM PM PM                               
  Q     E  E  E   T T T T T  T T T T T T T     
---------------------------------------------||
---------------------------------------------||
--------------------------------------------*||
--1/----------------------------------------*||
--1/----0--3--2/--5-5-5-5-5S-6-6-6-6-6-6-6\--||
--1/----0--3--2/-----------------------------||


        PM PM PM                             
  Q     E  E  E   T T T T T  T T T T T T T   
--------------------------------------------|
--------------------------------------------|
--------------------------------------------|
--1/----------------------------------------|
--1/----0--3--2/--5-5-5-5-5S-6-6-6-6-6-6-6\-|
--1/----0--3--2/----------------------------|


        PM PM PM                             
  Q     E  E  E   T T T T T  T T T T T T T   
--------------------------------------------|
--------------------------------------------|
--------------------------------------------|
--1/--------------5-5-5-5-5S-6-6-6-6-6-6-6\-|
--1/----0--3--2/----------------------------|
--1/----0--3--2/----------------------------|


        PM PM PM                             
  Q     E  E  E   T T T T T  T T T T T T T   
--------------------------------------------|
--------------------------------------------|
--------------------------------------------|
--1/--------------5-5-5-5-5S-6-6-6-6-6-6-6\-|
--1/----0--3--2/----------------------------|
--1/----0--3--2/----------------------------|


        PM PM PM                             
  Q     E  E  E   T T T T T  T T T T T T T   
--------------------------------------------|
--------------------------------------------|
--------------------------------------------|
--1/--------------5-5-5-5-5S-6-6-6-6-6-6-6\-|
--1/----0--3--2/----------------------------|
--1/----0--3--2/----------------------------|


        PM PM PM                             
  Q     E  E  E   T T T T T  T T T T T T T   
--------------------------------------------|
--------------------------------------------|
--------------------------------------------|
--1/--------------5-5-5-5-5S-6-6-6-6-6-6-6\-|
--1/----0--3--2/----------------------------|
--1/----0--3--2/----------------------------|


        PM PM PM                             
  Q     E  E  E   T T T T T  T T T T T T T   
--------------------------------------------|
--------------------------------------------|
--------------------------------------------|
--1/--------------5-5-5-5-5S-6-6-6-6-6-6-6\-|
--1/----0--3--2/----------------------------|
--1/----0--3--2/----------------------------|


        PM PM PM                             
  Q     E  E  E   T T T T T  T T T T T T T   
--------------------------------------------|
--------------------------------------------|
--------------------------------------------|
--1/--------------5-5-5-5-5S-6-6-6-6-6-6-6\-|
--1/----0--3--2/----------------------------|
--1/----0--3--2/----------------------------|


        PM PM PM                             
  Q     E  E  E   T T T T T  T T T T T T T   
--------------------------------------------|
--------------------------------------------|
--------------------------------------------|
--1/--------------5-5-5-5-5S-6-6-6-6-6-6-6\-|
--1/----0--3--2/----------------------------|
--1/----0--3--2/----------------------------|


        PM PM PM                             
  Q     E  E  E   T T T T T  T T T T T T T   
--------------------------------------------|
--------------------------------------------|
--------------------------------------------|
--1/--------------5-5-5-5-5S-6-6-6-6-6-6-6\-|
--1/----0--3--2/----------------------------|
--1/----0--3--2/----------------------------|


  PM      PM      PM      PM      PM PM       
  S  S  S S  S  S S  S  S S  S  S S  S  S  S  
---------------------------------------------|
---------------------------------------------|
---------------------------------------------|
---------------------------------------------|
-----4p-3----1p-0----4p-3----1p-0-------1p-0-|
--0--4p-3-0--1p-0-0--4p-3-0--1p-0-0--0--1p-0-|


  PM      PM      PM      PM      PM PM       
  S  S  S S  S  S S  S  S S  S  S S  S  S  S  
---------------------------------------------|
---------------------------------------------|
---------------------------------------------|
---------------------------------------------|
-----4p-3----1p-0----4p-3----1p-0-------1p-0-|
--0--4p-3-0--1p-0-0--4p-3-0--1p-0-0--0--1p-0-|


  PM      PM      PM      PM      PM PM       
  S  S  S S  S  S S  S  S S  S  S S  S  S  S  
---------------------------------------------|
---------------------------------------------|
---------------------------------------------|
---------------------------------------------|
-----4p-3----1p-0----4p-3----1p-0-------1p-0-|
--0--4p-3-0--1p-0-0--4p-3-0--1p-0-0--0--1p-0-|


  PM      PM      PM      PM      PM PM       
  S  S  S S  S  S S  S  S S  S  S S  S  S  S  
---------------------------------------------|
---------------------------------------------|
---------------------------------------------|
---------------------------------------------|
-----4p-3----1p-0----4p-3----1p-0-------1p-0-|
--0--4p-3-0--1p-0-0--4p-3-0--1p-0-0--0--1p-0-|


  PM      PM      PM      PM      PM PM       
  S  S  S S  S  S S  S  S S  S  S S  S  S  S  
---------------------------------------------|
---------------------------------------------|
---------------------------------------------|
---------------------------------------------|
-----4p-3----1p-0----4p-3----1p-0-------1p-0-|
--0--4p-3-0--1p-0-0--4p-3-0--1p-0-0--0--1p-0-|


  PM      PM      PM      PM      PM PM       
  S  S  S S  S  S S  S  S S  S  S S  S  S  S  
---------------------------------------------|
---------------------------------------------|
---------------------------------------------|
---------------------------------------------|
-----4p-3----1p-0----4p-3----1p-0-------1p-0-|
--0--4p-3-0--1p-0-0--4p-3-0--1p-0-0--0--1p-0-|


  PM      PM      PM      PM      PM PM       
  S  S  S S  S  S S  S  S S  S  S S  S  S  S  
---------------------------------------------|
---------------------------------------------|
---------------------------------------------|
---------------------------------------------|
-----4p-3----1p-0----4p-3----1p-0-------1p-0-|
--0--4p-3-0--1p-0-0--4p-3-0--1p-0-0--0--1p-0-|


  PM      PM      PM      PM      PM PM       
  S  S  S S  S  S S  S  S S  S  S S  S  S  S  
---------------------------------------------|
---------------------------------------------|
---------------------------------------------|
---------------------------------------------|
-----4p-3----1p-0----4p-3----1p-0-------1p-0-|
--0--4p-3-0--1p-0-0--4p-3-0--1p-0-0--0--1p-0-|


  S S  S S S  S S S S  S S S S  S S S    S S  S S S  S S S S  S S S S  S S S  
--------------------------------------|--------------------------------------|
--------------------------------------|--------------------------------------|
--------------------------------------|--------------------------------------|
--------------------------------------|--------------------------------------|
--------------------------------------|--------------------------------------|
--0-4p-3-0-1p-0-0-3-6p-3-0-4-7p-4-0-3-|--0-4p-3-0-1p-0-0-3-6p-3-0-4-7p-4-0-3-|


  PM      PM      PM PM PM PM PM PM PM PM PM PM  
  S  S  S S  S  S S  S  S  S  S  S  S  S  S  S   
------------------------------------------------|
------------------------------------------------|
------------------------------------------------|
------------------------------------------------|
-----4p-3----1p-0-------------------------------|
--0--4p-3-0--1p-0-0--3--6--3--0--4--7--4--0--3--|


  PM      PM      PM PM PM PM PM PM PM PM PM PM  
  S  S  S S  S  S S  S  S  S  S  S  S  S  S  S   
------------------------------------------------|
------------------------------------------------|
------------------------------------------------|
------------------------------------------------|
-----4p-3----1p-0-------------------------------|
--0--4p-3-0--1p-0-0--3--6--3--0--4--7--4--0--3--|


  PM      PM      PM PM PM PM PM PM PM PM PM PM  
  S  S  S S  S  S S  S  S  S  S  S  S  S  S  S   
------------------------------------------------|
------------------------------------------------|
------------------------------------------------|
------------------------------------------------|
-----4p-3----1p-0-------------------------------|
--0--4p-3-0--1p-0-0--3--6--3--0--4--7--4--0--3--|


  PM      PM      PM PM PM PM PM PM PM PM PM PM  
  S  S  S S  S  S S  S  S  S  S  S  S  S  S  S   
------------------------------------------------|
------------------------------------------------|
------------------------------------------------|
------------------------------------------------|
-----4p-3----1p-0-------------------------------|
--0--4p-3-0--1p-0-0--3--6--3--0--4--7--4--0--3--|


  PM      PM      PM PM PM PM PM PM PM PM PM PM  
  S  S  S S  S  S S  S  S  S  S  S  S  S  S  S   
------------------------------------------------|
------------------------------------------------|
------------------------------------------------|
------------------------------------------------|
-----4p-3----1p-0-------------------------------|
--0--4p-3-0--1p-0-0--3--6--3--0--4--7--4--0--3--|


  PM      PM      PM PM PM PM PM PM PM PM PM PM  
  S  S  S S  S  S S  S  S  S  S  S  S  S  S  S   
------------------------------------------------|
------------------------------------------------|
------------------------------------------------|
------------------------------------------------|
-----4p-3----1p-0-------------------------------|
--0--4p-3-0--1p-0-0--3--6--3--0--4--7--4--0--3--|


  PM      PM      PM PM PM PM PM PM PM PM PM PM  
  S  S  S S  S  S S  S  S  S  S  S  S  S  S  S   
------------------------------------------------|
------------------------------------------------|
------------------------------------------------|
------------------------------------------------|
-----4p-3----1p-0-------------------------------|
--0--4p-3-0--1p-0-0--3--6--3--0--4--7--4--0--3--|


  PM      PM      PM PM PM PM PM PM PM PM PM PM  
  S  S  S S  S  S S  S  S  S  S  S  S  S  S  S   
------------------------------------------------|
------------------------------------------------|
------------------------------------------------|
------------------------------------------------|
-----4p-3----1p-0-------------------------------|
--0--4p-3-0--1p-0-0--3--6--3--0--4--7--4--0--3--|


  PM                                                                       
  S  S  S  S S E.  E  S  S S S S  S    S S  S S S S S  S S S S S S S  S S  
------------------------------------|-------------------------------------|
------------------------------------|-------------------------------------|
------------------------------------|-------------------------------------|
------------------------------------|-------------------------------------|
-----4p-3S-1-0----------------------|-------------------------------------|
--0--4p-3S-1-0--------0h-1-0---0h-1-|--0-4p-3-1-0---0h-1-0---0---0-4p-3-1-|


  PM      PM      PM      PM      PM PM       
  S  S  S S  S  S S  S  S S  S  S S  S  S  S  
---------------------------------------------|
---------------------------------------------|
---------------------------------------------|
---------------------------------------------|
-----4p-3----1p-0----4p-3----1p-0-------1p-0-|
--0--4p-3-0--1p-0-0--4p-3-0--1p-0-0--0--1p-0-|


  PM      PM      PM PM             
  S  S  S S  S  S S  S  E  E  Q     
-----------------------------------|
-----------------------------------|
-----------------------------------|
-----------------------------------|
-----4p-3----1p-0------------------|
--0--4p-3-0--1p-0-0--1--0----------|


  T T T T T T T T T T T T T T T T T T T T T T T T T T T T T T T T   
-------------------------------------------------------------------|
-------------------------------------------------------------------|
-------------------------------------------------------------------|
-------------------------------------------------------------------|
----------2-2-2-2-3-3-3-3-----------------5-5-5-5-6-6-6-6----------|
--2-2-2-2-----------------3-3-3-3-5-5-5-5-----------------6-6-6-6S-|


  T T T T T T T T T T T T T T T T T T T T T T T T T T T T T T T T  
------------------------------------------------------------------|
------------------------------------------------------------------|
------------------------------------------------------------------|
------------------------------------------------------------------|
----------2-2-2-2-3-3-3-3-----------------5-5-5-5-6-6-6-6---------|
--2-2-2-2-----------------3-3-3-3-5-5-5-5-----------------6-6-6-6-|


  T T T T T T T T T T T T T T T T T T T T T T T T T T T T T T T T   
-------------------------------------------------------------------|
-------------------------------------------------------------------|
-------------------------------------------------------------------|
-------------------------------------------------------------------|
----------5-5-5-5-6-6-6-6-----------------8-8-8-8-9-9-9-9----------|
--5-5-5-5-----------------6-6-6-6-8-8-8-8-----------------9-9-9-9S-|


  T T T T T T T T T T T T T T T T T T T T T T T T T T T T T T T T   
-------------------------------------------------------------------|
-------------------------------------------------------------------|
-------------------------------------------------------------------|
-------------------------------------------------------------------|
----------5-5-5-5-6-6-6-6-----------------8-8-8-8-9-9-9-9----------|
--5-5-5-5-----------------6-6-6-6-8-8-8-8-----------------9-9-9-9S-|


  PM PM PM PM PM PM PM PM     PM PM PM PM PM PM PM PM  
  E  E  E  E  E  E  E  E      E  E  E  E  E  E  E  E   
---------------------------|--------------------------|
---------------------------|--------------------------|
---------------------------|--------------------------|
-----4--5--------7--8------|-----4--5--------7--8-----|
--2--2--3--3--5--5--6--6S--|--2--2--3--3--5--5--6--6--|
--2--------3--5--------6S--|--2--------3--5--------6--|


  PM PM PM PM PM  PM  PM PM    PM PM PM PM PM  PM  PM PM   
  E  E  E  E  E   E   E  E     E  E  E  E  E   E   E  E    
----------------------------|-----------------------------|
----------------------------|-----------------------------|
----------------------------|-----------------------------|
-----7--8--------10--11-----|-----7--8--------10--11------|
--5--5--6--6--8---8---9--9--|--5--5--6--6--8---8---9--9S--|
--5--------6--8----------9--|--5--------6--8----------9S--|


  PM      PM      PM      PM      PM PM       
  S  S  S S  S  S S  S  S S  S  S S  S  S  S  
---------------------------------------------|
---------------------------------------------|
---------------------------------------------|
---------------------------------------------|
-----4p-3----1p-0----4p-3----1p-0-------1p-0-|
--0--4p-3-0--1p-0-0--4p-3-0--1p-0-0--0--1p-0-|


  PM      PM      PM      PM      PM PM       
  S  S  S S  S  S S  S  S S  S  S S  S  S  S  
---------------------------------------------|
---------------------------------------------|
---------------------------------------------|
---------------------------------------------|
-----4p-3----1p-0----4p-3----1p-0-------1p-0-|
--0--4p-3-0--1p-0-0--4p-3-0--1p-0-0--0--1p-0-|


  PM      PM      PM      PM      PM PM       
  S  S  S S  S  S S  S  S S  S  S S  S  S  S  
---------------------------------------------|
---------------------------------------------|
---------------------------------------------|
---------------------------------------------|
-----4p-3----1p-0----4p-3----1p-0-------1p-0-|
--0--4p-3-0--1p-0-0--4p-3-0--1p-0-0--0--1p-0-|


  PM PM    PM PM    PM PM PM             
  S  S  E  S  S  E  S  S  S  S S S S  S  
----------------------------------------|
----------------------------------------|
----------------------------------------|
----------------------------------------|
--0--0-----0--0--------------5-L---5s-6-|
--0--0-----0--0-----0--2--3--5-L-3-5s-6-|


  PM PM PM        PM PM PM        PM PM       
  S  S  S  S S  S S  S  S  S S  S S  S  S  S  
---------------------------------------------|
---------------------------------------------|
---------------------------------------------|
---------------------------------------------|
---------------------------------------------|
--0--4--3----1p-0-0--4--3----1p-0-0--0--1p-0-|


  PM PM PM        PM PM PM        PM PM       
  S  S  S  S S  S S  S  S  S S  S S  S  S  S  
---------------------------------------------|
---------------------------------------------|
---------------------------------------------|
---------------------------------------------|
---------------------------------------------|
--0--4--3----1p-0-0--4--3----1p-0-0--0--1p-0-|


  PM PM PM        PM PM PM        PM PM       
  S  S  S  S S  S S  S  S  S S  S S  S  S  S  
---------------------------------------------|
---------------------------------------------|
---------------------------------------------|
---------------------------------------------|
---------------------------------------------|
--0--4--3----1p-0-0--4--3----1p-0-0--0--1p-0-|


  PM PM PM        PM PM PM        PM PM       
  S  S  S  S S  S S  S  S  S S  S S  S  S  S  
---------------------------------------------|
---------------------------------------------|
---------------------------------------------|
---------------------------------------------|
---------------------------------------------|
--0--4--3----1p-0-0--4--3----1p-0-0--0--1p-0-|


  PM PM PM        PM PM PM        PM PM       
  S  S  S  S S  S S  S  S  S S  S S  S  S  S  
---------------------------------------------|
---------------------------------------------|
---------------------------------------------|
---------------------------------------------|
---------------------------------------------|
--0--4--3----1p-0-0--4--3----1p-0-0--0--1p-0-|


  PM PM PM        PM PM PM        PM PM       
  S  S  S  S S  S S  S  S  S S  S S  S  S  S  
---------------------------------------------|
---------------------------------------------|
---------------------------------------------|
---------------------------------------------|
---------------------------------------------|
--0--4--3----1p-0-0--4--3----1p-0-0--0--1p-0-|


  PM PM PM        PM PM PM        PM PM       
  S  S  S  S S  S S  S  S  S S  S S  S  S  S  
---------------------------------------------|
---------------------------------------------|
---------------------------------------------|
---------------------------------------------|
---------------------------------------------|
--0--4--3----1p-0-0--4--3----1p-0-0--0--1p-0-|


  PM PM PM        PM PM             
  S  S  S  S S  S S  S  E  E  Q     
-----------------------------------|
-----------------------------------|
-----------------------------------|
-----------------------------------|
-----------------------------------|
--0--4--3----1p-0-0--1--0----------|


  T T T T T T T T T T T T T T T T T T T T T T T T T T T T T T T T   
-------------------------------------------------------------------|
-------------------------------------------------------------------|
-------------------------------------------------------------------|
-------------------------------------------------------------------|
----------2-2-2-2-3-3-3-3-----------------5-5-5-5-6-6-6-6----------|
--2-2-2-2-----------------3-3-3-3-5-5-5-5-----------------6-6-6-6S-|


  T T T T T T T T T T T T T T T T T T T T T T T T T T T T T T T T  
------------------------------------------------------------------|
------------------------------------------------------------------|
------------------------------------------------------------------|
------------------------------------------------------------------|
----------2-2-2-2-3-3-3-3-----------------5-5-5-5-6-6-6-6---------|
--2-2-2-2-----------------3-3-3-3-5-5-5-5-----------------6-6-6-6-|


  T T T T T T T T T T T T T T T T T T T T T T T T T T T T T T T T   
-------------------------------------------------------------------|
-------------------------------------------------------------------|
-------------------------------------------------------------------|
-------------------------------------------------------------------|
----------5-5-5-5-6-6-6-6-----------------8-8-8-8-9-9-9-9----------|
--5-5-5-5-----------------6-6-6-6-8-8-8-8-----------------9-9-9-9S-|


  T T T T T T T T T T T T T T T T T T T T T T T T T T T T T T T T   
-------------------------------------------------------------------|
-------------------------------------------------------------------|
-------------------------------------------------------------------|
-------------------------------------------------------------------|
----------5-5-5-5-6-6-6-6-----------------8-8-8-8-9-9-9-9----------|
--5-5-5-5-----------------6-6-6-6-8-8-8-8-----------------9-9-9-9S-|


  PM PM PM PM PM PM PM PM     PM PM PM PM PM PM PM PM  
  E  E  E  E  E  E  E  E      E  E  E  E  E  E  E  E   
---------------------------|--------------------------|
---------------------------|--------------------------|
---------------------------|--------------------------|
-----4--5--------7--8------|-----4--5--------7--8-----|
--2--2--3--3--5--5--6--6S--|--2--2--3--3--5--5--6--6--|
--2--------3--5--------6S--|--2--------3--5--------6--|


  PM PM PM PM PM  PM  PM PM    PM PM PM PM PM  PM  PM PM   
  E  E  E  E  E   E   E  E     E  E  E  E  E   E   E  E    
----------------------------|-----------------------------|
----------------------------|-----------------------------|
----------------------------|-----------------------------|
-----7--8--------10--11-----|-----7--8--------10--11------|
--5--5--6--6--8---8---9--9--|--5--5--6--6--8---8---9--9\--|
--5--------6--8----------9--|--5--------6--8----------9\--|


  E  E  S E  S S E  S S S S S    E  E  S E  S S E  S S S S S  
------------------------------|------------------------------|
------------------------------|------------------------------|
--5-----------------------5-5-|--5---------------------------|
--5--0--0-0--0-0-0--0-0-0-5-5-|--5--0--0-0--0-0-0--0-0-0-2-2-|
--3--0--0-0--0-0-0--0-0-0-3-3-|--3--0--0-0--0-0-0--0-0-0-2-2-|
-----0--0-0--0-0-0--0-0-0-----|-----0--0-0--0-0-0--0-0-0-2-2-|


                                                NH    NH    NH    NH  
  E  E  S E  S S E  S S S S S    E  E  S E  S   E     E     E     E   
------------------------------|--------------------------------------|
------------------------------|--------------------------------------|
------------------------------|--------------------------------------|
--2--3--3-3--3-3-3--3-3-3-5-5-|--5--6--6-6--6-<>2S--<>3S--<>4S--<>5--|
--2--3--3-3--3-3-3--3-3-3-5-5-|--5--6--6-6--6------------------------|
--2--3--3-3--3-3-3--3-3-3-5-5-|--5--6--6-6--6------------------------|


  E  E  S E  S S E  S S S S S    E  E  S E  S S E  S S S S S  
------------------------------|------------------------------|
------------------------------|------------------------------|
--5-----------------------5-5-|--5---------------------------|
--5--0--0-0--0-0-0--0-0-0-5-5-|--5--0--0-0--0-0-0--0-0-0-2-2-|
--3--0--0-0--0-0-0--0-0-0-3-3-|--3--0--0-0--0-0-0--0-0-0-2-2-|
-----0--0-0--0-0-0--0-0-0-----|-----0--0-0--0-0-0--0-0-0-2-2-|


                                                NH    NH    NH    NH  
  E  E  S E  S S E  S S S S S    E  E  S E  S   E     E     E     E   
------------------------------|--------------------------------------|
------------------------------|--------------------------------------|
------------------------------|--------------------------------------|
--2--3--3-3--3-3-3--3-3-3-5-5-|--5--6--6-6--6-<>2S--<>3S--<>4S--<>5--|
--2--3--3-3--3-3-3--3-3-3-5-5-|--5--6--6-6--6------------------------|
--2--3--3-3--3-3-3--3-3-3-5-5-|--5--6--6-6--6------------------------|


  E  E  S E  S S E  S S S S S    E  E  S E  S S E  S S S S S  
------------------------------|------------------------------|
------------------------------|------------------------------|
--5-----------------------5-5-|--5---------------------------|
--5--0--0-0--0-0-0--0-0-0-5-5-|--5--0--0-0--0-0-0--0-0-0-2-2-|
--3--0--0-0--0-0-0--0-0-0-3-3-|--3--0--0-0--0-0-0--0-0-0-2-2-|
-----0--0-0--0-0-0--0-0-0-----|-----0--0-0--0-0-0--0-0-0-2-2-|


                                                NH    NH    NH    NH  
  E  E  S E  S S E  S S S S S    E  E  S E  S   E     E     E     E   
------------------------------|--------------------------------------|
------------------------------|--------------------------------------|
------------------------------|--------------------------------------|
--2--3--3-3--3-3-3--3-3-3-5-5-|--5--6--6-6--6-<>2S--<>3S--<>4S--<>5--|
--2--3--3-3--3-3-3--3-3-3-5-5-|--5--6--6-6--6------------------------|
--2--3--3-3--3-3-3--3-3-3-5-5-|--5--6--6-6--6------------------------|


  E  E  S E  S S E  S S S S S    E  E  S E  S S E  S S S S S  
------------------------------|------------------------------|
------------------------------|------------------------------|
--5-----------------------5-5-|--5---------------------------|
--5--0--0-0--0-0-0--0-0-0-5-5-|--5--0--0-0--0-0-0--0-0-0-2-2-|
--3--0--0-0--0-0-0--0-0-0-3-3-|--3--0--0-0--0-0-0--0-0-0-2-2-|
-----0--0-0--0-0-0--0-0-0-----|-----0--0-0--0-0-0--0-0-0-2-2-|


  E  E  S E  S S E  S S S S S    E  E  S E  S S E  S S S E    
------------------------------|------------------------------|
------------------------------|------------------------------|
------------------------------|------------------------------|
--2--3--3-3--3-3-3--3-3-3-5-5-|--5--6--6-6--6-6-6--6-6-6-6S--|
--2--3--3-3--3-3-3--3-3-3-5-5-|--5--6--6-6--6-6-6--6-6-6-6S--|
--2--3--3-3--3-3-3--3-3-3-5-5-|--5--6--6-6--6-6-6--6-6-6-6S--|


  Q     E  E  H           Q     E  E  H           Q     E  E  H         
-----------------------|-----------------------|-----------------------|
-----------------------|-----------------------|-----------------------|
-----------------------|-----------------------|-----------------------|
--1/-------------------|--1/-------------------|--1/-------------------|
--1/----0--------------|--1/----0--------------|--1/----0--------------|
--1/----0--------------|--1/----0--------------|--1/----0--------------|


                                PM PM PM                          
  Q     E  E  H           Q     E  E  E   T T T T S T T T T T T   
-----------------------|-----------------------------------------|
-----------------------|-----------------------------------------|
-----------------------|-----------------------------------------|
--1/-------------------|--1/-------------------------------------|
--1/----0--------------|--1/----0--3--2/--5-5-5-5-5-6-6-6-6-6-6\-|
--1/----0--------------|--1/----0--3--2/-------------------------|


        PM PM PM                          
  Q     E  E  E   T T T T S T T T T T T   
-----------------------------------------|
-----------------------------------------|
-----------------------------------------|
--1/-------------------------------------|
--1/----0--3--2/--5-5-5-5-5-6-6-6-6-6-6\-|
--1/----0--3--2/-------------------------|


        PM PM PM                                  PM PM PM                  
  Q     E  E  E   T T T T S T T T T T T     Q     E  E  E   T T T T S S E   
-----------------------------------------|---------------------------------|
-----------------------------------------|---------------------------------|
-----------------------------------------|---------------------------------|
--1/-------------------------------------|--1/-----------------------------|
--1/----0--3--2/--5-5-5-5-5-6-6-6-6-6-6\-|--1/----0--3--2/--5-5-5-5-5-6----|
--1/----0--3--2/-------------------------|--1/----0--3--2/-----------------|


              PM  PM PM    PM    PM            PM  PM PM    PM    PM          
  H           E.  S  E  E  E  E  S  S  E       E.  S  E  E  E  E  S  S  E     
-----------|--------------------------------|--------------------------------|
-----------|--------------------------------|--------------------------------|
-----------|--------------------------------|--------------------------------|
-----------|------------3-----5-----6-(6)S--|--1---------3-----5-----6-(6)S--|
-----------|--1------0--3--0--5--0--6-(6)S--|--1------0--3--0--5--0--6-(6)S--|
-----------|--1---4--0--3--0--5--0--6-(6)S--|--1---4--0--3--0--5--0--6-(6)S--|


  PM  PM PM    PM    PM            PM  PM PM    PM    PM          
  E.  S  E  E  E  E  S  S  E       E.  S  E  E  E  E  S  S  E     
--------------------------------|--------------------------------|
--------------------------------|--------------------------------|
--------------------------------|--------------------------------|
--1---------3-----5-----6-(6)S--|--1---------3-----5-----6-(6)---|
--1------0--3--0--5--0--6-(6)S--|--1------0--3--0--5--0--6-(6)S--|
--1---4--0--3--0--5--0--6-(6)S--|--1---4--0--3--0--5--0--6-(6)S--|


  PM  PM PM    PM    PM            PM  PM PM    PM    PM          
  E.  S  E  E  E  E  S  S  E       E.  S  E  E  E  E  S  S  E     
--------------------------------|--------------------------------|
--------------------------------|--------------------------------|
--------------------------------|--------------------------------|
------------3-----5-----6-(6)S--|--1---------3-----5-----6-(6)---|
--1------0--3--0--5--0--6-(6)S--|--1------0--3--0--5--0--6-(6)S--|
--1---4--0--3--0--5--0--6-(6)S--|--1---4--0--3--0--5--0--6-(6)S--|


  PM  PM PM    PM    PM            PM  PM PM    PM    PM          
  E.  S  E  E  E  E  S  S  E       E.  S  E  E  E  E  S  S  E     
--------------------------------|--------------------------------|
--------------------------------|--------------------------------|
--------------------------------|--------------------------------|
------------3-----5-----6-(6)S--|--1---------3-----5-----6-(6)S--|
--1------0--3--0--5--0--6-(6)S--|--1------0--3--0--5--0--6-(6)S--|
--1---4--0--3--0--5--0--6-(6)S--|--1---4--0--3--0--5--0--6-(6)S--|


              PM PM PM PM PM                PM PM PM PM PM  
                    |--3--|                       |--3--|   
  E.  S E  E  E  E  E  E  E     E.  S E  E  E  E  E  E  E   
-----------------------------|-----------------------------|
-----------------------------|-----------------------------|
-----------------------------|-----------------------------|
--1-----0--3-----5-----------|--1-----0--3-----5-----------|
--1-----0--3--0--5-----------|--1-----0--3--0--5-----------|
--1---4-0--3--0--5--3--5--6--|--1---4-0--3--0--5--3--5--6--|


              PM PM PM PM PM                                    
                    |--3--|                 |--3--|  |---3--|   
  E.  S E  E  E  E  E  E  E     E.  S E  E  E  E  E  E   E  E   
-----------------------------|---------------------------------|
-----------------------------|---------------------------------|
-----------------------------|--------------7--7--7--8S--6--6--|
--1-----0--3-----5-----------|--1-----0--3--x--x--x--x---x--x--|
--1-----0--3--0--5-----------|--1-----0--3--5--5--5--6S--4--4--|
--1---4-0--3--0--5--3--5--6--|--1---4-0--3---------------------|


              PM PM PM PM PM                PM PM PM PM PM  
                    |--3--|                       |--3--|   
  E.  S E  E  E  E  E  E  E     E.  S E  E  E  E  E  E  E   
-----------------------------|-----------------------------|
-----------------------------|-----------------------------|
-----------------------------|-----------------------------|
--1-----0--3-----5-----------|--1-----0--3-----5-----------|
--1-----0--3--0--5-----------|--1-----0--3--0--5-----------|
--1---4-0--3--0--5--3--5--6--|--1---4-0--3--0--5--3--5--6--|


              PM PM PM PM PM                                    
                    |--3--|                 |--3--|  |---3--|   
  E.  S E  E  E  E  E  E  E     E.  S E  E  E  E  E  E   E  E   
-----------------------------|---------------------------------|
-----------------------------|---------------------------------|
-----------------------------|--------------7--7--7--8S--6--6--|
--1-----0--3-----5-----------|--1-----0--3--x--x--x--x---x--x--|
--1-----0--3--0--5-----------|--1-----0--3--5--5--5--6S--4--4--|
--1---4-0--3--0--5--3--5--6--|--1---4-0--3---------------------|


  E  E  S E  S S E  S S S S S    E  E  S E  S S E  S S S S S  
------------------------------|------------------------------|
------------------------------|------------------------------|
--5-----------------------5-5-|--5---------------------------|
--5--0--0-0--0-0-0--0-0-0-5-5-|--5--0--0-0--0-0-0--0-0-0-2-2-|
--3--0--0-0--0-0-0--0-0-0-3-3-|--3--0--0-0--0-0-0--0-0-0-2-2-|
-----0--0-0--0-0-0--0-0-0-----|-----0--0-0--0-0-0--0-0-0-2-2-|


                                                NH    NH    NH    NH  
  E  E  S E  S S E  S S S S S    E  E  S E  S   E     E     E     E   
------------------------------|--------------------------------------|
------------------------------|--------------------------------------|
------------------------------|--------------------------------------|
--2--3--3-3--3-3-3--3-3-3-5-5-|--5--6--6-6--6-<>2S--<>3S--<>4S--<>5--|
--2--3--3-3--3-3-3--3-3-3-5-5-|--5--6--6-6--6------------------------|
--2--3--3-3--3-3-3--3-3-3-5-5-|--5--6--6-6--6------------------------|


  E  E  S E  S S E  S S S S S    E  E  S E  S S E  S S S S S  
------------------------------|------------------------------|
------------------------------|------------------------------|
--5-----------------------5-5-|--5---------------------------|
--5--0--0-0--0-0-0--0-0-0-5-5-|--5--0--0-0--0-0-0--0-0-0-2-2-|
--3--0--0-0--0-0-0--0-0-0-3-3-|--3--0--0-0--0-0-0--0-0-0-2-2-|
-----0--0-0--0-0-0--0-0-0-----|-----0--0-0--0-0-0--0-0-0-2-2-|


                                                NH    NH    NH    NH  
  E  E  S E  S S E  S S S S S    E  E  S E  S   E     E     E     E   
------------------------------|--------------------------------------|
------------------------------|--------------------------------------|
------------------------------|--------------------------------------|
--2--3--3-3--3-3-3--3-3-3-5-5-|--5--6--6-6--6-<>2S--<>3S--<>4S--<>5--|
--2--3--3-3--3-3-3--3-3-3-5-5-|--5--6--6-6--6------------------------|
--2--3--3-3--3-3-3--3-3-3-5-5-|--5--6--6-6--6------------------------|


  E  E  S E  S S E  S S S S S    E  E  S E  S S E  S S S S S  
------------------------------|------------------------------|
------------------------------|------------------------------|
--5-----------------------5-5-|--5---------------------------|
--5--0--0-0--0-0-0--0-0-0-5-5-|--5--0--0-0--0-0-0--0-0-0-2-2-|
--3--0--0-0--0-0-0--0-0-0-3-3-|--3--0--0-0--0-0-0--0-0-0-2-2-|
-----0--0-0--0-0-0--0-0-0-----|-----0--0-0--0-0-0--0-0-0-2-2-|


                                                NH    NH    NH    NH  
  E  E  S E  S S E  S S S S S    E  E  S E  S   E     E     E     E   
------------------------------|--------------------------------------|
------------------------------|--------------------------------------|
------------------------------|--------------------------------------|
--2--3--3-3--3-3-3--3-3-3-5-5-|--5--6--6-6--6-<>2S--<>3S--<>4S--<>5--|
--2--3--3-3--3-3-3--3-3-3-5-5-|--5--6--6-6--6------------------------|
--2--3--3-3--3-3-3--3-3-3-5-5-|--5--6--6-6--6------------------------|


  E  E  S E  S S E  S S S S S    E  E  S E  S S E  S S S S S  
------------------------------|------------------------------|
------------------------------|------------------------------|
--5-----------------------5-5-|--5---------------------------|
--5--0--0-0--0-0-0--0-0-0-5-5-|--5--0--0-0--0-0-0--0-0-0-2-2-|
--3--0--0-0--0-0-0--0-0-0-3-3-|--3--0--0-0--0-0-0--0-0-0-2-2-|
-----0--0-0--0-0-0--0-0-0-----|-----0--0-0--0-0-0--0-0-0-2-2-|


  E  E  S E  S S E  S S S S S    E  E  S E  S S E  S S S E    
------------------------------|------------------------------|
------------------------------|------------------------------|
------------------------------|------------------------------|
--2--3--3-3--3-3-3--3-3-3-5-5-|--5--6--6-6--6-6-6--6-6-6-6S--|
--2--3--3-3--3-3-3--3-3-3-5-5-|--5--6--6-6--6-6-6--6-6-6-6S--|
--2--3--3-3--3-3-3--3-3-3-5-5-|--5--6--6-6--6-6-6--6-6-6-6S--|


   T T T T T T T T  T  T  T  T T T T T  T  T  T  T  T  T  T  T  T  T  T  T  T  T
--------------------------------------------------------------------------------
--------------------------------------------------------------------------------
--------------------------------------------------------------------------------
-----------9-9-9-9-10-10-10-10---------------------12-12-12-12-13-13-13-13------
--/7-7-7-7---------------------8-8-8-8-10-10-10-10-------------------------11-11
--------------------------------------------------------------------------------


  T T T T T T T T  T  T  T  T T T T T  T  T  T  T  T  T  T  T  T  T  T  T  T  T 
--------------------------------------------------------------------------------
--------------------------------------------------------------------------------
--------------------------------------------------------------------------------
----------9-9-9-9-10-10-10-10---------------------12-12-12-12-13-13-13-13-------
--7-7-7-7---------------------8-8-8-8-10-10-10-10-------------------------11-11-
--------------------------------------------------------------------------------


  T T T T T T T T  T  T  T  T T T T T  T  T  T  T  T  T  T  T  T  T  T  T  T  T 
--------------------------------------------------------------------------------
--------------------------------------------------------------------------------
--------------------------------------------------------------------------------
----------9-9-9-9-10-10-10-10---------------------12-12-12-12-13-13-13-13-------
--7-7-7-7---------------------8-8-8-8-10-10-10-10-------------------------11-11-
--------------------------------------------------------------------------------


  T T T T T T T T  T  T  T  T T T T T  T  T  T  T  T  T  T  T  T  T  T  T  E    
-------------------------------------------------------------------------------|
-------------------------------------------------------------------------------|
-------------------------------------------------------------------------------|
----------9-9-9-9-10-10-10-10---------------------12-12-12-12-13-13-13-13------|
--7-7-7-7---------------------8-8-8-8-10-10-10-10-------------------------11\--|
-------------------------------------------------------------------------------|


   T T T T T T T T  T  T  T  T T T T T  T  T  T  T  T  T  T  T  T  T  T  T  T  T
--------------------------------------------------------------------------------
--------------------------------------------------------------------------------
--------------------------------------------------------------------------------
-----------9-9-9-9-10-10-10-10---------------------12-12-12-12-13-13-13-13------
--/7-7-7-7---------------------8-8-8-8-10-10-10-10-------------------------11-11
--------------------------------------------------------------------------------


  T T T T T T T T  T  T  T  T T T T T  T  T  T  T  T  T  T  T  T  T  T  T  T  T 
--------------------------------------------------------------------------------
--------------------------------------------------------------------------------
--------------------------------------------------------------------------------
----------9-9-9-9-10-10-10-10---------------------12-12-12-12-13-13-13-13-------
--7-7-7-7---------------------8-8-8-8-10-10-10-10-------------------------11-11-
--------------------------------------------------------------------------------


  T T T T T T T T  T  T  T  T T T T T  T  T  T  T  T  T  T  T  T  T  T  T  T  T 
--------------------------------------------------------------------------------
--------------------------------------------------------------------------------
--------------------------------------------------------------------------------
----------9-9-9-9-10-10-10-10---------------------12-12-12-12-13-13-13-13-------
--7-7-7-7---------------------8-8-8-8-10-10-10-10-------------------------11-11-
--------------------------------------------------------------------------------


  T T T T T T T T  T  T  T  T T T T T  T  T  T  T  T  T  T  T  T  T  T  T  E    
-------------------------------------------------------------------------------|
-------------------------------------------------------------------------------|
-------------------------------------------------------------------------------|
----------9-9-9-9-10-10-10-10---------------------12-12-12-12-13-13-13-13------|
--7-7-7-7---------------------8-8-8-8-10-10-10-10-------------------------11\--|
-------------------------------------------------------------------------------|


        PM PM PM PM PM PM                  PM PM PM PM PM  
                                                 |--3--|   
  Q     E  E  E  E  S  S  E     Q    Q     E  E  E  E  E   
-----------------------------|----------------------------|
-----------------------------|----------------------------|
-----------------------------|----------------------------|
--1/-------------------------|-------1/-------------------|
--1/----0--4--1--5--2--6-----|-------1/----0--4--3--5--6--|
--1/----0--4--1--5--2--6-----|-------1/----0--4--3--5--6--|


        PM PM PM PM PM PM                  PM PM PM PM PM  
                                                 |--3--|   
  Q     E  E  E  E  S  S  E     Q    Q     E  E  E  E  E   
-----------------------------|----------------------------|
-----------------------------|----------------------------|
-----------------------------|----------------------------|
--1/-------------------------|-------1/-------------------|
--1/----0--4--1--5--2--6-----|-------1/----0--4--3--5--6--|
--1/----0--4--1--5--2--6-----|-------1/----0--4--3--5--6--|


        PM PM PM PM PM PM                  PM PM PM PM PM  
                                                 |--3--|   
  Q     E  E  E  E  S  S  E     Q    Q     E  E  E  E  E   
-----------------------------|----------------------------|
-----------------------------|----------------------------|
-----------------------------|----------------------------|
--1/-------------------------|-------1/-------------------|
--1/----0--4--1--5--2--6-----|-------1/----0--4--3--5--6--|
--1/----0--4--1--5--2--6-----|-------1/----0--4--3--5--6--|


        PM PM PM PM PM PM                          
  Q     E  E  E  E  S  S  E     W                  
-----------------------------|-------------------||
-----------------------------|-------------------||
-----------------------------|-------------------||
--1/-------------------------|-------------------||
--1/----0--4--1--5--2--6-----|-------------------||
--1/----0--4--1--5--2--6-----|-------------------||




Duration Legend
---------------
W - whole
H - half
Q - quarter
E - 8th
S - 16th
T - 32nd
X - 64th
. - note dotted
|-n-|  - n-tuplets


Tablature Legend
----------------
L - tied note
x - dead note
g - grace note
(n) - ghost note
> - accentuded note
NH - natural harmonic
AH - artificial harmonic
TH - tapped harmonic
SH - semi harmonic
PH - pitch harmonic
h - hammer on
p - pull off
b - bend
br - bendRelease
pb - preBend
pbr - preBendRelease
brb - bendReleaseBend
\n/ - tremolo bar dip
\n - tremolo bar dive
-/n - tremolo bar Release up
/n\ - tremolo bar inverted dip
/n - tremolo bar return
-\n - tremolo bar Release down
S - shift slide
s - legato slide
/ -  slide into from below or out of upwards
\ -  slide into from above or out of downwards
~ - vibrato
W - wide vibrato
tr - trill
TP - tremolo picking
T - tapping
S - slap
P - pop
< - fade in
^ - brush up
v - brush down

            
            
Suggest correction
Creating personal tab
Creating personal tab
You can edit any tab online and save it as your Personal.

You can edit, replace or remove any tab part or add personal notes – all changes will be seen only by you.

Personal tabs can be accessed anytime from any device, even offline.
Learn more »
comments
print report bad tab
4 comments total. Showing first comments.
0 reply
CrudeSapphire 10 May 08, 2007 10:06 AM

& that's riiight gratz

0 reply
[ LiAm ] 436 Nov 12, 2007 09:06 PM

try not to write the whole song out riff for riff or it just gets way too big

0 reply
TheGuitarist507 31 Feb 27, 2008 01:44 PM

sounds right but DUDE

Too ****in long just put like X12 or something next to them.

guest
You may want to rate the tab now too:
select rating
Wanna post a correction for this tab? Suggest correction